  0
SECTION
  2
HEADER
  9
$ACADVER
  1
AC1009
  9
$INSBASE
 10
-12.34575003679796
 20
-10.64044774550978
 30
0.0
  9
$EXTMIN
 10
-12.34575003679796
 20
-10.64044774550978
 30
0.0
  9
$EXTMAX
 10
132.5055070367979
 20
80.83943867166436
 30
0.0
  9
$LIMMIN
 10
-7.159335797940816
 20
-3.508017454186902
  9
$LIMMAX
 10
133.0701896612374
 20
87.15642232214831
  9
$ORTHOMODE
 70
     1
  9
$REGENMODE
 70
     1
  9
$FILLMODE
 70
     1
  9
$QTEXTMODE
 70
     0
  9
$MIRRTEXT
 70
     0
  9
$DRAGMODE
 70
     2
  9
$LTSCALE
 40
1.0
  9
$OSMODE
 70
     0
  9
$ATTMODE
 70
     1
  9
$TEXTSIZE
 40
3.5
  9
$TRACEWID
 40
0.1
  9
$TEXTSTYLE
  7
STANDARD
  9
$CLAYER
  8
ITEM_50
  9
$CELTYPE
  6
BYLAYER
  9
$CECOLOR
 62
   256
  9
$DIMSCALE
 40
1.0
  9
$DIMASZ
 40
2.0
  9
$DIMEXO
 40
1.0
  9
$DIMDLI
 40
8.0
  9
$DIMRND
 40
0.0
  9
$DIMDLE
 40
0.0
  9
$DIMEXE
 40
2.0
  9
$DIMTP
 40
0.1
  9
$DIMTM
 40
0.1
  9
$DIMTXT
 40
3.5
  9
$DIMCEN
 40
2.0
  9
$DIMTSZ
 40
0.0
  9
$DIMTOL
 70
     0
  9
$DIMLIM
 70
     0
  9
$DIMTIH
 70
     0
  9
$DIMTOH
 70
     0
  9
$DIMSE1
 70
     0
  9
$DIMSE2
 70
     0
  9
$DIMTAD
 70
     1
  9
$DIMZIN
 70
     8
  9
$DIMBLK
  1

  9
$DIMASO
 70
     1
  9
$DIMSHO
 70
     1
  9
$DIMPOST
  1

  9
$DIMAPOST
  1

  9
$DIMALT
 70
     0
  9
$DIMALTD
 70
     2
  9
$DIMALTF
 40
25.39999999999999
  9
$DIMLFAC
 40
1.0
  9
$DIMTOFL
 70
     1
  9
$DIMTVP
 40
0.0
  9
$DIMTIX
 70
     0
  9
$DIMSOXD
 70
     0
  9
$DIMSAH
 70
     0
  9
$DIMBLK1
  1

  9
$DIMBLK2
  1

  9
$DIMSTYLE
  2
*UNNAMED
  9
$DIMCLRD
 70
     0
  9
$DIMCLRE
 70
     0
  9
$DIMCLRT
 70
     0
  9
$DIMTFAC
 40
1.0
  9
$DIMGAP
 40
0.09
  9
$LUNITS
 70
     2
  9
$LUPREC
 70
     3
  9
$SKETCHINC
 40
0.1
  9
$FILLETRAD
 40
1.5
  9
$AUNITS
 70
     0
  9
$AUPREC
 70
     1
  9
$MENU
  1

  9
$ELEVATION
 40
0.0
  9
$PELEVATION
 40
0.0
  9
$THICKNESS
 40
0.0
  9
$LIMCHECK
 70
     0
  9
$BLIPMODE
 70
     0
  9
$CHAMFERA
 40
5.0
  9
$CHAMFERB
 40
5.0
  9
$SKPOLY
 70
     1
  9
$TDCREATE
 40
2448778.459723726
  9
$TDUPDATE
 40
2449393.433198726
  9
$TDINDWG
 40
0.0090589120
  9
$TDUSRTIMER
 40
0.0090589120
  9
$USRTIMER
 70
     1
  9
$ANGBASE
 50
0.0
  9
$ANGDIR
 70
     0
  9
$PDMODE
 70
     0
  9
$PDSIZE
 40
0.0
  9
$PLINEWID
 40
0.0
  9
$COORDS
 70
     2
  9
$SPLFRAME
 70
     0
  9
$SPLINETYPE
 70
     6
  9
$SPLINESEGS
 70
     8
  9
$ATTDIA
 70
     1
  9
$ATTREQ
 70
     1
  9
$HANDLING
 70
     0
  9
$HANDSEED
  5
387
  9
$SURFTAB1
 70
     6
  9
$SURFTAB2
 70
     6
  9
$SURFTYPE
 70
     6
  9
$SURFU
 70
     6
  9
$SURFV
 70
     6
  9
$UCSNAME
  2

  9
$UCSORG
 10
0.0
 20
0.0
 30
0.0
  9
$UCSXDIR
 10
1.0
 20
0.0
 30
0.0
  9
$UCSYDIR
 10
0.0
 20
1.0
 30
0.0
  9
$PUCSNAME
  2

  9
$PUCSORG
 10
0.0
 20
0.0
 30
0.0
  9
$PUCSXDIR
 10
1.0
 20
0.0
 30
0.0
  9
$PUCSYDIR
 10
0.0
 20
1.0
 30
0.0
  9
$USERI1
 70
     0
  9
$USERI2
 70
     3
  9
$USERI3
 70
    15
  9
$USERI4
 70
     0
  9
$USERI5
 70
     0
  9
$USERR1
 40
1.0
  9
$USERR2
 40
1.0
  9
$USERR3
 40
0.0
  9
$USERR4
 40
1.0
  9
$USERR5
 40
0.0
  9
$WORLDVIEW
 70
     5
  9
$SHADEDGE
 70
     3
  9
$SHADEDIF
 70
    70
  9
$TILEMODE
 70
     1
  9
$MAXACTVP
 70
    16
  9
$PINSBASE
 10
0.0
 20
0.0
 30
0.0
  9
$PLIMCHECK
 70
     0
  9
$PEXTMIN
 10
1.000000000000000E+20
 20
1.000000000000000E+20
 30
1.000000000000000E+20
  9
$PEXTMAX
 10
-1.000000000000000E+20
 20
-1.000000000000000E+20
 30
-1.000000000000000E+20
  9
$PLIMMIN
 10
0.0
 20
0.0
  9
$PLIMMAX
 10
12.0
 20
9.0
  9
$UNITMODE
 70
     0
  9
$VISRETAIN
 70
     0
  9
$PLINEGEN
 70
     0
  9
$PSLTSCALE
 70
     0
  9
$TREEDEPTH
 70
  3020
  9
$DWGCODEPAGE
  3
undefined
  0
ENDSEC
  0
SECTION
  2
TABLES
  0
TABLE
  2
VPORT
 70
     2
  0
VPORT
  2
*ACTIVE
 70
     0
 10
0.0
 20
0.0
 11
1.0
 21
1.0
 12
60.07987849999999
 22
46.13387970918353
 13
0.0
 23
0.0
 14
1.0
 24
1.0
 15
10.0
 25
10.0
 16
0.0
 26
0.0
 36
1.0
 17
0.0
 27
0.0
 37
0.0
 40
113.5486549093866
 41
1.275675675675675
 42
50.0
 43
0.0
 44
0.0
 50
0.0
 51
0.0
 71
     0
 72
   100
 73
     1
 74
     0
 75
     0
 76
     0
 77
     0
 78
     0
  0
ENDTAB
  0
TABLE
  2
LTYPE
 70
     2
  0
LTYPE
  2
CONTINUOUS
 70
    64
  3
Solid line
 72
    65
 73
     0
 40
0.0
  0
LTYPE
  2
GEN
 70
    64
  3
----------------------
 72
    65
 73
     2
 40
10000000000.0
 49
0.0
 49
10000000000.0
  0
ENDTAB
  0
TABLE
  2
LAYER
 70
     2
  0
LAYER
  2
0
 70
     0
 62
     7
  6
GEN
  0
LAYER
  2
ITEM_50
 70
    64
 62
     7
  6
CONTINUOUS
  0
ENDTAB
  0
TABLE
  2
STYLE
 70
     1
  0
STYLE
  2
STANDARD
 70
     0
 40
0.0
 41
1.0
 50
0.0
 71
     0
 42
3.5
  3
ISO8
  4

  0
ENDTAB
  0
TABLE
  2
VIEW
 70
     0
  0
ENDTAB
  0
TABLE
  2
UCS
 70
     0
  0
ENDTAB
  0
TABLE
  2
APPID
 70
     1
  0
APPID
  2
ACAD
 70
    64
  0
ENDTAB
  0
TABLE
  2
DIMSTYLE
 70
     0
  0
ENDTAB
  0
ENDSEC
  0
SECTION
  2
BLOCKS
  0
ENDSEC
  0
SECTION
  2
ENTITIES
  0
ARC
  8
ITEM_50
 10
118.8219529999999
 20
37.25
 30
0.0
 40
1.25
 50
270.0
 51
90.0
  0
LINE
  8
ITEM_50
 10
118.5719529999999
 20
33.0
 30
0.0
 11
112.5719529999999
 21
33.0
 31
0.0
  0
LINE
  8
ITEM_50
 10
112.5719529999999
 20
36.0
 30
0.0
 11
118.8219529999999
 21
36.0
 31
0.0
  0
ARC
  8
ITEM_50
 10
112.5719529999999
 20
34.5
 30
0.0
 40
1.5
 50
90.0
 51
270.0
  0
ARC
  8
ITEM_50
 10
118.5719529999999
 20
31.5
 30
0.0
 40
1.5
 50
0.0
 51
90.0
  0
ARC
  8
ITEM_50
 10
118.8219529999999
 20
42.75
 30
0.0
 40
1.25
 50
270.0
 51
90.0
  0
LINE
  8
ITEM_50
 10
119.0719529999999
 20
38.5
 30
0.0
 11
112.5719529999999
 21
38.5
 31
0.0
  0
ARC
  8
ITEM_50
 10
112.5719529999999
 20
40.0
 30
0.0
 40
1.5
 50
180.0
 51
270.0
  0
LINE
  8
ITEM_50
 10
87.817231
 20
77.7
 30
0.0
 11
90.11307399999999
 21
77.7
 31
0.0
  0
ARC
  8
ITEM_50
 10
85.19548
 20
74.23241199999999
 30
0.0
 40
0.832412
 50
135.000201
 51
180.0
  0
ARC
  8
ITEM_50
 10
85.19548
 20
74.23241199999999
 30
0.0
 40
0.832412
 50
180.0
 51
270.000198
  0
LINE
  8
ITEM_50
 10
84.606874
 20
74.82101299999999
 30
0.0
 11
87.251546
 21
77.46568499999999
 31
0.0
  0
ARC
  8
ITEM_50
 10
87.313074
 20
73.09999999999999
 30
0.0
 40
0.3
 50
0.0
 51
90.0
  0
LINE
  8
ITEM_50
 10
87.61307399999999
 20
73.09999999999999
 30
0.0
 11
87.61307399999998
 21
72.29999999999998
 31
0.0
  0
LINE
  8
ITEM_50
 10
85.19548199999999
 20
73.4
 30
0.0
 11
87.313074
 21
73.4
 31
0.0
  0
ARC
  8
ITEM_50
 10
87.817231
 20
76.9
 30
0.0
 40
0.8
 50
90.0
 51
135.0
  0
ARC
  8
ITEM_50
 10
92.408916
 20
76.9
 30
0.0
 40
0.8
 50
45.0
 51
90.0
  0
LINE
  8
ITEM_50
 10
95.03066499999999
 20
73.4
 30
0.0
 11
92.91307399999999
 21
73.4
 31
0.0
  0
ARC
  8
ITEM_50
 10
92.91307399999999
 20
73.09999999999999
 30
0.0
 40
0.3
 50
90.0
 51
180.0
  0
LINE
  8
ITEM_50
 10
95.619274
 20
74.82101299999999
 30
0.0
 11
92.974602
 21
77.46568499999999
 31
0.0
  0
ARC
  8
ITEM_50
 10
95.030668
 20
74.23241199999999
 30
0.0
 40
0.832412
 50
269.9998019999999
 51
0.0
  0
ARC
  8
ITEM_50
 10
95.030668
 20
74.23241199999999
 30
0.0
 40
0.832412
 50
0.0
 51
44.999799
  0
LINE
  8
ITEM_50
 10
92.408916
 20
77.7
 30
0.0
 11
90.11307399999999
 21
77.7
 31
0.0
  0
LINE
  8
ITEM_50
 10
92.61307399999999
 20
73.09999999999999
 30
0.0
 11
92.61307400000001
 21
72.29999999999998
 31
0.0
  0
LINE
  8
ITEM_50
 10
27.80138
 20
77.7
 30
0.0
 11
30.09722299999999
 21
77.7
 31
0.0
  0
ARC
  8
ITEM_50
 10
25.17962899999999
 20
74.23241199999999
 30
0.0
 40
0.832412
 50
135.000201
 51
180.0
  0
ARC
  8
ITEM_50
 10
25.17962899999999
 20
74.23241199999999
 30
0.0
 40
0.832412
 50
180.0
 51
270.000198
  0
LINE
  8
ITEM_50
 10
24.59102299999999
 20
74.82101299999999
 30
0.0
 11
27.23569499999999
 21
77.46568499999999
 31
0.0
  0
ARC
  8
ITEM_50
 10
27.29722299999999
 20
73.09999999999999
 30
0.0
 40
0.3
 50
0.0
 51
90.0
  0
LINE
  8
ITEM_50
 10
27.59722299999999
 20
73.09999999999999
 30
0.0
 11
27.59722299999999
 21
72.29999999999999
 31
0.0
  0
LINE
  8
ITEM_50
 10
25.179632
 20
73.4
 30
0.0
 11
27.29722299999999
 21
73.4
 31
0.0
  0
ARC
  8
ITEM_50
 10
27.80138
 20
76.9
 30
0.0
 40
0.8
 50
90.0
 51
135.0
  0
ARC
  8
ITEM_50
 10
32.39306599999999
 20
76.9
 30
0.0
 40
0.8
 50
45.0
 51
90.0
  0
LINE
  8
ITEM_50
 10
35.014814
 20
73.4
 30
0.0
 11
32.89722299999999
 21
73.4
 31
0.0
  0
ARC
  8
ITEM_50
 10
32.89722299999999
 20
73.09999999999999
 30
0.0
 40
0.3
 50
90.0
 51
180.0
  0
LINE
  8
ITEM_50
 10
35.60342299999999
 20
74.82101299999999
 30
0.0
 11
32.95875099999999
 21
77.46568499999999
 31
0.0
  0
ARC
  8
ITEM_50
 10
35.014817
 20
74.23241199999999
 30
0.0
 40
0.832412
 50
269.9998019999999
 51
0.0
  0
ARC
  8
ITEM_50
 10
35.014817
 20
74.23241199999999
 30
0.0
 40
0.832412
 50
0.0
 51
44.999799
  0
LINE
  8
ITEM_50
 10
32.39306599999999
 20
77.7
 30
0.0
 11
30.09722299999999
 21
77.7
 31
0.0
  0
LINE
  8
ITEM_50
 10
32.59722299999999
 20
73.09999999999999
 30
0.0
 11
32.59722299999999
 21
72.29999999999999
 31
0.0
  0
LINE
  8
ITEM_50
 10
112.5719529999999
 20
78.4
 30
0.0
 11
112.571953
 21
79.19999999999899
 31
0.0
  0
LINE
  8
ITEM_50
 10
112.3677959999999
 20
73.79999999999999
 30
0.0
 11
110.0719529999999
 21
73.79999999999999
 31
0.0
  0
ARC
  8
ITEM_50
 10
114.989547
 20
77.267588
 30
0.0
 40
0.832412
 50
315.000201
 51
0.0
  0
ARC
  8
ITEM_50
 10
114.989547
 20
77.267588
 30
0.0
 40
0.832412
 50
0.0
 51
90.00019799999999
  0
LINE
  8
ITEM_50
 10
115.578153
 20
76.678987
 30
0.0
 11
112.933481
 21
74.034315
 31
0.0
  0
ARC
  8
ITEM_50
 10
112.871953
 20
78.4
 30
0.0
 40
0.3
 50
180.0
 51
270.0
  0
LINE
  8
ITEM_50
 10
114.9895439999999
 20
78.09999999999999
 30
0.0
 11
112.871953
 21
78.09999999999999
 31
0.0
  0
ARC
  8
ITEM_50
 10
112.3677959999999
 20
74.59999999999999
 30
0.0
 40
0.8
 50
270.0
 51
315.0
  0
ARC
  8
ITEM_50
 10
107.77611
 20
74.59999999999999
 30
0.0
 40
0.8
 50
225.0
 51
270.0
  0
LINE
  8
ITEM_50
 10
105.154362
 20
78.09999999999999
 30
0.0
 11
107.2719529999999
 21
78.09999999999999
 31
0.0
  0
LINE
  8
ITEM_50
 10
107.5719529999999
 20
78.4
 30
0.0
 11
107.5719529999999
 21
79.19999999999899
 31
0.0
  0
ARC
  8
ITEM_50
 10
107.2719529999999
 20
78.4
 30
0.0
 40
0.3
 50
270.0
 51
0.0
  0
LINE
  8
ITEM_50
 10
104.565753
 20
76.678987
 30
0.0
 11
107.210425
 21
74.034315
 31
0.0
  0
ARC
  8
ITEM_50
 10
105.1543589999999
 20
77.267588
 30
0.0
 40
0.832412
 50
89.999802
 51
180.0
  0
ARC
  8
ITEM_50
 10
105.1543589999999
 20
77.267588
 30
0.0
 40
0.832412
 50
180.0
 51
224.9997989999999
  0
LINE
  8
ITEM_50
 10
107.77611
 20
73.79999999999999
 30
0.0
 11
110.0719529999999
 21
73.79999999999999
 31
0.0
  0
LINE
  8
ITEM_50
 10
72.61307399999999
 20
78.4
 30
0.0
 11
72.61307399999999
 21
79.19999999999897
 31
0.0
  0
LINE
  8
ITEM_50
 10
72.408916
 20
73.79999999999999
 30
0.0
 11
70.11307399999999
 21
73.79999999999999
 31
0.0
  0
ARC
  8
ITEM_50
 10
75.030668
 20
77.267588
 30
0.0
 40
0.832412
 50
315.000201
 51
0.0
  0
ARC
  8
ITEM_50
 10
75.030668
 20
77.267588
 30
0.0
 40
0.832412
 50
0.0
 51
90.00019799999999
  0
LINE
  8
ITEM_50
 10
75.619274
 20
76.678987
 30
0.0
 11
72.974602
 21
74.034315
 31
0.0
  0
ARC
  8
ITEM_50
 10
72.91307399999999
 20
78.4
 30
0.0
 40
0.3
 50
180.0
 51
270.0
  0
LINE
  8
ITEM_50
 10
75.03066499999999
 20
78.09999999999999
 30
0.0
 11
72.91307399999999
 21
78.09999999999999
 31
0.0
  0
ARC
  8
ITEM_50
 10
72.408916
 20
74.59999999999999
 30
0.0
 40
0.8
 50
270.0
 51
315.0
  0
ARC
  8
ITEM_50
 10
67.817231
 20
74.59999999999999
 30
0.0
 40
0.8
 50
225.0
 51
270.0
  0
LINE
  8
ITEM_50
 10
65.19548199999999
 20
78.09999999999999
 30
0.0
 11
67.313074
 21
78.09999999999999
 31
0.0
  0
LINE
  8
ITEM_50
 10
67.61307399999999
 20
78.4
 30
0.0
 11
67.61307399999999
 21
79.19999999999897
 31
0.0
  0
ARC
  8
ITEM_50
 10
67.313074
 20
78.4
 30
0.0
 40
0.3
 50
270.0
 51
0.0
  0
LINE
  8
ITEM_50
 10
64.606874
 20
76.678987
 30
0.0
 11
67.251546
 21
74.034315
 31
0.0
  0
ARC
  8
ITEM_50
 10
65.19548
 20
77.267588
 30
0.0
 40
0.832412
 50
89.999802
 51
180.0
  0
ARC
  8
ITEM_50
 10
65.19548
 20
77.267588
 30
0.0
 40
0.832412
 50
180.0
 51
224.9997989999999
  0
LINE
  8
ITEM_50
 10
67.817231
 20
73.79999999999999
 30
0.0
 11
70.11307399999999
 21
73.79999999999999
 31
0.0
  0
LINE
  8
ITEM_50
 10
52.61307399999999
 20
78.4
 30
0.0
 11
52.613074
 21
79.19999999999899
 31
0.0
  0
LINE
  8
ITEM_50
 10
52.40891599999999
 20
73.79999999999999
 30
0.0
 11
50.11307399999999
 21
73.79999999999999
 31
0.0
  0
ARC
  8
ITEM_50
 10
55.03066799999999
 20
77.267588
 30
0.0
 40
0.832412
 50
315.000201
 51
0.0
  0
ARC
  8
ITEM_50
 10
55.03066799999999
 20
77.267588
 30
0.0
 40
0.832412
 50
0.0
 51
90.00019799999999
  0
LINE
  8
ITEM_50
 10
55.61927399999999
 20
76.678987
 30
0.0
 11
52.97460199999999
 21
74.034315
 31
0.0
  0
ARC
  8
ITEM_50
 10
52.913074
 20
78.4
 30
0.0
 40
0.3
 50
180.0
 51
270.0
  0
LINE
  8
ITEM_50
 10
55.03066499999999
 20
78.09999999999999
 30
0.0
 11
52.913074
 21
78.09999999999999
 31
0.0
  0
ARC
  8
ITEM_50
 10
52.40891599999999
 20
74.59999999999999
 30
0.0
 40
0.8
 50
270.0
 51
315.0
  0
ARC
  8
ITEM_50
 10
47.81723099999999
 20
74.59999999999999
 30
0.0
 40
0.8
 50
225.0
 51
270.0
  0
LINE
  8
ITEM_50
 10
45.19548199999999
 20
78.09999999999999
 30
0.0
 11
47.313074
 21
78.09999999999999
 31
0.0
  0
LINE
  8
ITEM_50
 10
47.61307399999999
 20
78.4
 30
0.0
 11
47.613074
 21
79.19999999999897
 31
0.0
  0
ARC
  8
ITEM_50
 10
47.313074
 20
78.4
 30
0.0
 40
0.3
 50
270.0
 51
0.0
  0
LINE
  8
ITEM_50
 10
44.60687399999999
 20
76.678987
 30
0.0
 11
47.25154599999999
 21
74.034315
 31
0.0
  0
ARC
  8
ITEM_50
 10
45.19548
 20
77.267588
 30
0.0
 40
0.832412
 50
89.999802
 51
180.0
  0
ARC
  8
ITEM_50
 10
45.19548
 20
77.267588
 30
0.0
 40
0.832412
 50
180.0
 51
224.9997989999999
  0
LINE
  8
ITEM_50
 10
47.81723099999999
 20
73.79999999999999
 30
0.0
 11
50.11307399999999
 21
73.79999999999999
 31
0.0
  0
LINE
  8
ITEM_50
 10
12.571953
 20
78.4
 30
0.0
 11
12.571953
 21
79.19999999999899
 31
0.0
  0
LINE
  8
ITEM_50
 10
12.367796
 20
73.79999999999999
 30
0.0
 11
10.071953
 21
73.79999999999999
 31
0.0
  0
ARC
  8
ITEM_50
 10
14.989547
 20
77.267588
 30
0.0
 40
0.832412
 50
315.000201
 51
0.0
  0
ARC
  8
ITEM_50
 10
14.989547
 20
77.267588
 30
0.0
 40
0.832412
 50
0.0
 51
90.00019799999999
  0
LINE
  8
ITEM_50
 10
15.578153
 20
76.678987
 30
0.0
 11
12.933481
 21
74.034315
 31
0.0
  0
ARC
  8
ITEM_50
 10
12.87195299999999
 20
78.4
 30
0.0
 40
0.3
 50
180.0
 51
270.0
  0
LINE
  8
ITEM_50
 10
14.989544
 20
78.09999999999999
 30
0.0
 11
12.87195299999999
 21
78.09999999999999
 31
0.0
  0
ARC
  8
ITEM_50
 10
12.367796
 20
74.59999999999999
 30
0.0
 40
0.8
 50
270.0
 51
315.0
  0
ARC
  8
ITEM_50
 10
7.77611
 20
74.59999999999999
 30
0.0
 40
0.8
 50
225.0
 51
270.0
  0
LINE
  8
ITEM_50
 10
5.154361999999999
 20
78.09999999999999
 30
0.0
 11
7.271952999999999
 21
78.09999999999999
 31
0.0
  0
LINE
  8
ITEM_50
 10
7.571952999999999
 20
78.4
 30
0.0
 11
7.571952999999999
 21
79.19999999999899
 31
0.0
  0
ARC
  8
ITEM_50
 10
7.271952999999999
 20
78.4
 30
0.0
 40
0.3
 50
270.0
 51
0.0
  0
LINE
  8
ITEM_50
 10
4.565753
 20
76.678987
 30
0.0
 11
7.210424999999999
 21
74.034315
 31
0.0
  0
ARC
  8
ITEM_50
 10
5.154359
 20
77.267588
 30
0.0
 40
0.832412
 50
89.999802
 51
180.0
  0
ARC
  8
ITEM_50
 10
5.154359
 20
77.267588
 30
0.0
 40
0.832412
 50
180.0
 51
224.9997989999999
  0
LINE
  8
ITEM_50
 10
7.77611
 20
73.79999999999999
 30
0.0
 11
10.071953
 21
73.79999999999999
 31
0.0
  0
LINE
  8
ITEM_50
 10
0.0719529999999997
 20
75.99999999999899
 30
0.0
 11
0.071953
 21
72.5
 31
0.0
  0
ARC
  8
ITEM_50
 10
1.071952999999999
 20
72.5
 30
0.0
 40
1.0
 50
180.0
 51
270.0
  0
ARC
  8
ITEM_50
 10
1.071952999999999
 20
10.0
 30
0.0
 40
1.5
 50
270.0
 51
90.0
  0
ARC
  8
ITEM_50
 10
1.071952999999999
 20
7.5
 30
0.0
 40
1.0
 50
90.0
 51
180.0
  0
ARC
  8
ITEM_50
 10
1.071952999999999
 20
15.0
 30
0.0
 40
1.5
 50
270.0
 51
90.0
  0
ARC
  8
ITEM_50
 10
1.071952999999999
 20
12.5
 30
0.0
 40
1.0
 50
90.0
 51
270.0
  0
ARC
  8
ITEM_50
 10
1.071952999999999
 20
20.0
 30
0.0
 40
1.5
 50
270.0
 51
90.0
  0
ARC
  8
ITEM_50
 10
1.071952999999999
 20
17.5
 30
0.0
 40
1.0
 50
90.0
 51
270.0
  0
ARC
  8
ITEM_50
 10
1.071952999999999
 20
25.0
 30
0.0
 40
1.5
 50
270.0
 51
90.0
  0
ARC
  8
ITEM_50
 10
1.071952999999999
 20
22.5
 30
0.0
 40
1.0
 50
90.0
 51
270.0
  0
ARC
  8
ITEM_50
 10
1.071952999999999
 20
30.0
 30
0.0
 40
1.5
 50
270.0
 51
90.0
  0
ARC
  8
ITEM_50
 10
1.071952999999999
 20
27.5
 30
0.0
 40
1.0
 50
90.0
 51
270.0
  0
ARC
  8
ITEM_50
 10
1.071952999999999
 20
35.0
 30
0.0
 40
1.5
 50
270.0
 51
90.0
  0
ARC
  8
ITEM_50
 10
1.071952999999999
 20
32.5
 30
0.0
 40
1.0
 50
90.0
 51
270.0
  0
ARC
  8
ITEM_50
 10
1.071952999999999
 20
40.0
 30
0.0
 40
1.5
 50
270.0
 51
90.0
  0
ARC
  8
ITEM_50
 10
1.071952999999999
 20
37.5
 30
0.0
 40
1.0
 50
90.0
 51
270.0
  0
ARC
  8
ITEM_50
 10
1.071952999999999
 20
45.0
 30
0.0
 40
1.5
 50
270.0
 51
90.0
  0
ARC
  8
ITEM_50
 10
1.071952999999999
 20
42.5
 30
0.0
 40
1.0
 50
90.0
 51
270.0
  0
ARC
  8
ITEM_50
 10
1.071952999999999
 20
50.0
 30
0.0
 40
1.5
 50
270.0
 51
90.0
  0
ARC
  8
ITEM_50
 10
1.071952999999999
 20
47.5
 30
0.0
 40
1.0
 50
90.0
 51
270.0
  0
ARC
  8
ITEM_50
 10
1.071952999999999
 20
55.0
 30
0.0
 40
1.5
 50
270.0
 51
90.0
  0
ARC
  8
ITEM_50
 10
1.071952999999999
 20
52.5
 30
0.0
 40
1.0
 50
90.0
 51
270.0
  0
ARC
  8
ITEM_50
 10
1.071952999999999
 20
60.0
 30
0.0
 40
1.5
 50
270.0
 51
90.0
  0
ARC
  8
ITEM_50
 10
1.071952999999999
 20
57.5
 30
0.0
 40
1.0
 50
90.0
 51
270.0
  0
ARC
  8
ITEM_50
 10
1.071952999999999
 20
65.0
 30
0.0
 40
1.5
 50
270.0
 51
90.0
  0
ARC
  8
ITEM_50
 10
1.071952999999999
 20
62.5
 30
0.0
 40
1.0
 50
90.0
 51
270.0
  0
ARC
  8
ITEM_50
 10
1.071952999999999
 20
67.5
 30
0.0
 40
1.0
 50
90.0
 51
270.0
  0
ARC
  8
ITEM_50
 10
1.071952999999999
 20
70.0
 30
0.0
 40
1.5
 50
270.0
 51
90.0
  0
LINE
  8
ITEM_50
 10
22.571953
 20
71.5
 30
0.0
 11
12.756102
 21
71.5
 31
0.0
  0
LINE
  8
ITEM_50
 10
4.771952999999999
 20
40.0
 30
0.0
 11
4.771952999999999
 21
41.2
 31
0.0
  0
LINE
  8
ITEM_50
 10
4.771952999999999
 20
41.2
 30
0.0
 11
6.771952999999999
 21
41.374977
 31
0.0
  0
LINE
  8
ITEM_50
 10
4.771952999999999
 20
38.79999999999999
 30
0.0
 11
6.771952999999999
 21
38.62502299999999
 31
0.0
  0
LINE
  8
ITEM_50
 10
4.771952999999999
 20
40.0
 30
0.0
 11
4.771952999999999
 21
38.79999999999999
 31
0.0
  0
LINE
  8
ITEM_50
 10
6.771952999999999
 20
41.374977
 30
0.0
 11
6.771952999999999
 21
43.70502299999999
 31
0.0
  0
LINE
  8
ITEM_50
 10
6.771952999999999
 20
46.45497699999999
 30
0.0
 11
6.771952999999999
 21
48.785023
 31
0.0
  0
LINE
  8
ITEM_50
 10
4.771952999999999
 20
45.07999999999999
 30
0.0
 11
4.771952999999999
 21
43.88
 31
0.0
  0
LINE
  8
ITEM_50
 10
4.771952999999999
 20
43.88
 30
0.0
 11
6.771952999999999
 21
43.70502299999999
 31
0.0
  0
LINE
  8
ITEM_50
 10
4.771952999999999
 20
46.28
 30
0.0
 11
6.771952999999999
 21
46.45497699999999
 31
0.0
  0
LINE
  8
ITEM_50
 10
4.771952999999999
 20
45.07999999999999
 30
0.0
 11
4.771952999999999
 21
46.28
 31
0.0
  0
LINE
  8
ITEM_50
 10
6.771952999999999
 20
51.53497699999999
 30
0.0
 11
6.771952999999999
 21
53.865023
 31
0.0
  0
LINE
  8
ITEM_50
 10
4.771952999999999
 20
50.15999999999999
 30
0.0
 11
4.771952999999999
 21
48.96
 31
0.0
  0
LINE
  8
ITEM_50
 10
4.771952999999999
 20
48.96
 30
0.0
 11
6.771952999999999
 21
48.785023
 31
0.0
  0
LINE
  8
ITEM_50
 10
4.771952999999999
 20
51.35999999999999
 30
0.0
 11
6.771952999999999
 21
51.53497699999999
 31
0.0
  0
LINE
  8
ITEM_50
 10
4.771952999999999
 20
50.15999999999999
 30
0.0
 11
4.771952999999999
 21
51.35999999999999
 31
0.0
  0
LINE
  8
ITEM_50
 10
6.771952999999999
 20
56.614977
 30
0.0
 11
6.771952999999999
 21
58.94502299999999
 31
0.0
  0
LINE
  8
ITEM_50
 10
4.771952999999999
 20
55.24
 30
0.0
 11
4.771952999999999
 21
54.03999999999999
 31
0.0
  0
LINE
  8
ITEM_50
 10
4.771952999999999
 20
54.03999999999999
 30
0.0
 11
6.771952999999999
 21
53.865023
 31
0.0
  0
LINE
  8
ITEM_50
 10
4.771952999999999
 20
56.43999999999999
 30
0.0
 11
6.771952999999999
 21
56.614977
 31
0.0
  0
LINE
  8
ITEM_50
 10
4.771952999999999
 20
55.24
 30
0.0
 11
4.771952999999999
 21
56.43999999999999
 31
0.0
  0
LINE
  8
ITEM_50
 10
6.771952999999999
 20
61.694977
 30
0.0
 11
6.771952999999999
 21
64.025023
 31
0.0
  0
LINE
  8
ITEM_50
 10
4.771952999999999
 20
60.32
 30
0.0
 11
4.771952999999999
 21
59.11999999999999
 31
0.0
  0
LINE
  8
ITEM_50
 10
4.771952999999999
 20
59.11999999999999
 30
0.0
 11
6.771952999999999
 21
58.94502299999999
 31
0.0
  0
LINE
  8
ITEM_50
 10
4.771952999999999
 20
61.52
 30
0.0
 11
6.771952999999999
 21
61.694977
 31
0.0
  0
LINE
  8
ITEM_50
 10
4.771952999999999
 20
60.32
 30
0.0
 11
4.771952999999999
 21
61.52
 31
0.0
  0
LINE
  8
ITEM_50
 10
6.771952999999999
 20
66.774977
 30
0.0
 11
6.771952999999999
 21
67.5
 31
0.0
  0
LINE
  8
ITEM_50
 10
4.771952999999999
 20
65.4
 30
0.0
 11
4.771952999999999
 21
64.2
 31
0.0
  0
LINE
  8
ITEM_50
 10
4.771952999999999
 20
64.2
 30
0.0
 11
6.771952999999999
 21
64.025023
 31
0.0
  0
LINE
  8
ITEM_50
 10
4.771952999999999
 20
66.59999999999999
 30
0.0
 11
6.771952999999999
 21
66.774977
 31
0.0
  0
LINE
  8
ITEM_50
 10
4.771952999999999
 20
65.4
 30
0.0
 11
4.771952999999999
 21
66.59999999999999
 31
0.0
  0
LINE
  8
ITEM_50
 10
4.771952999999999
 20
34.92
 30
0.0
 11
4.771952999999999
 21
36.11999999999999
 31
0.0
  0
LINE
  8
ITEM_50
 10
4.771952999999999
 20
36.11999999999999
 30
0.0
 11
6.771952999999999
 21
36.294977
 31
0.0
  0
LINE
  8
ITEM_50
 10
4.771952999999999
 20
33.71999999999999
 30
0.0
 11
6.771952999999999
 21
33.545023
 31
0.0
  0
LINE
  8
ITEM_50
 10
4.771952999999999
 20
34.92
 30
0.0
 11
4.771952999999999
 21
33.71999999999999
 31
0.0
  0
LINE
  8
ITEM_50
 10
6.771952999999999
 20
36.294977
 30
0.0
 11
6.771952999999999
 21
38.62502299999999
 31
0.0
  0
LINE
  8
ITEM_50
 10
4.771952999999999
 20
29.83999999999999
 30
0.0
 11
4.771952999999999
 21
31.03999999999999
 31
0.0
  0
LINE
  8
ITEM_50
 10
4.771952999999999
 20
31.03999999999999
 30
0.0
 11
6.771952999999999
 21
31.214977
 31
0.0
  0
LINE
  8
ITEM_50
 10
4.771952999999999
 20
28.64
 30
0.0
 11
6.771952999999999
 21
28.46502299999999
 31
0.0
  0
LINE
  8
ITEM_50
 10
4.771952999999999
 20
29.83999999999999
 30
0.0
 11
4.771952999999999
 21
28.64
 31
0.0
  0
LINE
  8
ITEM_50
 10
6.771952999999999
 20
31.214977
 30
0.0
 11
6.771952999999999
 21
33.545023
 31
0.0
  0
LINE
  8
ITEM_50
 10
4.771952999999999
 20
24.76
 30
0.0
 11
4.771952999999999
 21
25.96
 31
0.0
  0
LINE
  8
ITEM_50
 10
4.771952999999999
 20
25.96
 30
0.0
 11
6.771952999999999
 21
26.13497699999999
 31
0.0
  0
LINE
  8
ITEM_50
 10
4.771952999999999
 20
23.55999999999999
 30
0.0
 11
6.771952999999999
 21
23.385023
 31
0.0
  0
LINE
  8
ITEM_50
 10
4.771952999999999
 20
24.76
 30
0.0
 11
4.771952999999999
 21
23.55999999999999
 31
0.0
  0
LINE
  8
ITEM_50
 10
6.771952999999999
 20
26.13497699999999
 30
0.0
 11
6.771952999999999
 21
28.46502299999999
 31
0.0
  0
LINE
  8
ITEM_50
 10
4.771952999999999
 20
19.67999999999999
 30
0.0
 11
4.771952999999999
 21
20.87999999999999
 31
0.0
  0
LINE
  8
ITEM_50
 10
4.771952999999999
 20
20.87999999999999
 30
0.0
 11
6.771952999999999
 21
21.054977
 31
0.0
  0
LINE
  8
ITEM_50
 10
4.771952999999999
 20
18.48
 30
0.0
 11
6.771952999999999
 21
18.30502299999999
 31
0.0
  0
LINE
  8
ITEM_50
 10
4.771952999999999
 20
19.67999999999999
 30
0.0
 11
4.771952999999999
 21
18.48
 31
0.0
  0
LINE
  8
ITEM_50
 10
6.771952999999999
 20
21.054977
 30
0.0
 11
6.771952999999999
 21
23.385023
 31
0.0
  0
LINE
  8
ITEM_50
 10
4.771952999999999
 20
14.59999999999999
 30
0.0
 11
4.771952999999999
 21
15.8
 31
0.0
  0
LINE
  8
ITEM_50
 10
4.771952999999999
 20
15.8
 30
0.0
 11
6.771952999999999
 21
15.974977
 31
0.0
  0
LINE
  8
ITEM_50
 10
4.771952999999999
 20
13.4
 30
0.0
 11
6.771952999999999
 21
13.225023
 31
0.0
  0
LINE
  8
ITEM_50
 10
4.771952999999999
 20
14.59999999999999
 30
0.0
 11
4.771952999999999
 21
13.4
 31
0.0
  0
LINE
  8
ITEM_50
 10
6.771952999999999
 20
15.974977
 30
0.0
 11
6.771952999999999
 21
18.30502299999999
 31
0.0
  0
LINE
  8
ITEM_50
 10
12.756102
 20
71.5
 30
0.0
 11
10.77195299999999
 21
71.5
 31
0.0
  0
LINE
  8
ITEM_50
 10
6.771952999999999
 20
67.5
 30
0.0
 11
6.771952999999999
 21
67.5
 31
0.0
  0
ARC
  8
ITEM_50
 10
10.77195299999999
 20
67.5
 30
0.0
 40
4.0
 50
90.0
 51
180.0
  0
LINE
  8
ITEM_50
 10
103.5719529999999
 20
12.5
 30
0.0
 11
103.5719529999999
 21
12.5
 31
0.0
  0
ARC
  8
ITEM_50
 10
99.57195299999999
 20
67.5
 30
0.0
 40
4.0
 50
0.0
 51
90.0
  0
LINE
  8
ITEM_50
 10
103.5719529999999
 20
67.5
 30
0.0
 11
103.5719529999999
 21
67.5
 31
0.0
  0
LINE
  8
ITEM_50
 10
97.587804
 20
71.5
 30
0.0
 11
99.57195299999999
 21
71.5
 31
0.0
  0
LINE
  8
ITEM_50
 10
103.5719529999999
 20
12.5
 30
0.0
 11
103.5719529999999
 21
13.225023
 31
0.0
  0
LINE
  8
ITEM_50
 10
103.5719529999999
 20
15.974977
 30
0.0
 11
103.5719529999999
 21
18.30502299999999
 31
0.0
  0
LINE
  8
ITEM_50
 10
105.5719529999999
 20
14.59999999999999
 30
0.0
 11
105.5719529999999
 21
13.4
 31
0.0
  0
LINE
  8
ITEM_50
 10
105.5719529999999
 20
13.4
 30
0.0
 11
103.5719529999999
 21
13.225023
 31
0.0
  0
LINE
  8
ITEM_50
 10
105.5719529999999
 20
15.8
 30
0.0
 11
103.5719529999999
 21
15.974977
 31
0.0
  0
LINE
  8
ITEM_50
 10
105.5719529999999
 20
14.59999999999999
 30
0.0
 11
105.5719529999999
 21
15.8
 31
0.0
  0
LINE
  8
ITEM_50
 10
103.5719529999999
 20
21.054977
 30
0.0
 11
103.5719529999999
 21
23.385023
 31
0.0
  0
LINE
  8
ITEM_50
 10
105.5719529999999
 20
19.67999999999999
 30
0.0
 11
105.5719529999999
 21
18.48
 31
0.0
  0
LINE
  8
ITEM_50
 10
105.5719529999999
 20
18.48
 30
0.0
 11
103.5719529999999
 21
18.30502299999999
 31
0.0
  0
LINE
  8
ITEM_50
 10
105.5719529999999
 20
20.87999999999999
 30
0.0
 11
103.5719529999999
 21
21.054977
 31
0.0
  0
LINE
  8
ITEM_50
 10
105.5719529999999
 20
19.67999999999999
 30
0.0
 11
105.5719529999999
 21
20.87999999999999
 31
0.0
  0
LINE
  8
ITEM_50
 10
103.5719529999999
 20
26.13497699999999
 30
0.0
 11
103.5719529999999
 21
28.46502299999999
 31
0.0
  0
LINE
  8
ITEM_50
 10
105.5719529999999
 20
24.76
 30
0.0
 11
105.5719529999999
 21
23.55999999999999
 31
0.0
  0
LINE
  8
ITEM_50
 10
105.5719529999999
 20
23.55999999999999
 30
0.0
 11
103.5719529999999
 21
23.385023
 31
0.0
  0
LINE
  8
ITEM_50
 10
105.5719529999999
 20
25.96
 30
0.0
 11
103.5719529999999
 21
26.13497699999999
 31
0.0
  0
LINE
  8
ITEM_50
 10
105.5719529999999
 20
24.76
 30
0.0
 11
105.5719529999999
 21
25.96
 31
0.0
  0
LINE
  8
ITEM_50
 10
103.5719529999999
 20
31.214977
 30
0.0
 11
103.5719529999999
 21
33.545023
 31
0.0
  0
LINE
  8
ITEM_50
 10
105.5719529999999
 20
29.83999999999999
 30
0.0
 11
105.5719529999999
 21
28.64
 31
0.0
  0
LINE
  8
ITEM_50
 10
105.5719529999999
 20
28.64
 30
0.0
 11
103.5719529999999
 21
28.46502299999999
 31
0.0
  0
LINE
  8
ITEM_50
 10
105.5719529999999
 20
31.03999999999999
 30
0.0
 11
103.5719529999999
 21
31.214977
 31
0.0
  0
LINE
  8
ITEM_50
 10
105.5719529999999
 20
29.83999999999999
 30
0.0
 11
105.5719529999999
 21
31.03999999999999
 31
0.0
  0
LINE
  8
ITEM_50
 10
103.5719529999999
 20
36.294977
 30
0.0
 11
103.5719529999999
 21
38.62502299999999
 31
0.0
  0
LINE
  8
ITEM_50
 10
105.5719529999999
 20
34.92
 30
0.0
 11
105.5719529999999
 21
33.71999999999999
 31
0.0
  0
LINE
  8
ITEM_50
 10
105.5719529999999
 20
33.71999999999999
 30
0.0
 11
103.5719529999999
 21
33.545023
 31
0.0
  0
LINE
  8
ITEM_50
 10
105.5719529999999
 20
36.11999999999999
 30
0.0
 11
103.5719529999999
 21
36.294977
 31
0.0
  0
LINE
  8
ITEM_50
 10
105.5719529999999
 20
34.92
 30
0.0
 11
105.5719529999999
 21
36.11999999999999
 31
0.0
  0
LINE
  8
ITEM_50
 10
105.5719529999999
 20
65.4
 30
0.0
 11
105.5719529999999
 21
66.59999999999999
 31
0.0
  0
LINE
  8
ITEM_50
 10
105.5719529999999
 20
66.59999999999999
 30
0.0
 11
103.5719529999999
 21
66.774977
 31
0.0
  0
LINE
  8
ITEM_50
 10
105.5719529999999
 20
64.2
 30
0.0
 11
103.5719529999999
 21
64.025023
 31
0.0
  0
LINE
  8
ITEM_50
 10
105.5719529999999
 20
65.4
 30
0.0
 11
105.5719529999999
 21
64.2
 31
0.0
  0
LINE
  8
ITEM_50
 10
103.5719529999999
 20
66.774977
 30
0.0
 11
103.5719529999999
 21
67.5
 31
0.0
  0
LINE
  8
ITEM_50
 10
105.5719529999999
 20
60.32
 30
0.0
 11
105.5719529999999
 21
61.52
 31
0.0
  0
LINE
  8
ITEM_50
 10
105.5719529999999
 20
61.52
 30
0.0
 11
103.5719529999999
 21
61.694977
 31
0.0
  0
LINE
  8
ITEM_50
 10
105.5719529999999
 20
59.11999999999999
 30
0.0
 11
103.5719529999999
 21
58.94502299999999
 31
0.0
  0
LINE
  8
ITEM_50
 10
105.5719529999999
 20
60.32
 30
0.0
 11
105.5719529999999
 21
59.11999999999999
 31
0.0
  0
LINE
  8
ITEM_50
 10
103.5719529999999
 20
61.694977
 30
0.0
 11
103.5719529999999
 21
64.025023
 31
0.0
  0
LINE
  8
ITEM_50
 10
105.5719529999999
 20
55.24
 30
0.0
 11
105.5719529999999
 21
56.43999999999999
 31
0.0
  0
LINE
  8
ITEM_50
 10
105.5719529999999
 20
56.43999999999999
 30
0.0
 11
103.5719529999999
 21
56.614977
 31
0.0
  0
LINE
  8
ITEM_50
 10
105.5719529999999
 20
54.03999999999999
 30
0.0
 11
103.5719529999999
 21
53.865023
 31
0.0
  0
LINE
  8
ITEM_50
 10
105.5719529999999
 20
55.24
 30
0.0
 11
105.5719529999999
 21
54.03999999999999
 31
0.0
  0
LINE
  8
ITEM_50
 10
103.5719529999999
 20
56.614977
 30
0.0
 11
103.5719529999999
 21
58.94502299999999
 31
0.0
  0
LINE
  8
ITEM_50
 10
105.5719529999999
 20
50.15999999999999
 30
0.0
 11
105.5719529999999
 21
51.35999999999999
 31
0.0
  0
LINE
  8
ITEM_50
 10
105.5719529999999
 20
51.35999999999999
 30
0.0
 11
103.5719529999999
 21
51.53497699999999
 31
0.0
  0
LINE
  8
ITEM_50
 10
105.5719529999999
 20
48.96
 30
0.0
 11
103.5719529999999
 21
48.785023
 31
0.0
  0
LINE
  8
ITEM_50
 10
105.5719529999999
 20
50.15999999999999
 30
0.0
 11
105.5719529999999
 21
48.96
 31
0.0
  0
LINE
  8
ITEM_50
 10
103.5719529999999
 20
51.53497699999999
 30
0.0
 11
103.5719529999999
 21
53.865023
 31
0.0
  0
LINE
  8
ITEM_50
 10
105.5719529999999
 20
45.07999999999999
 30
0.0
 11
105.5719529999999
 21
46.28
 31
0.0
  0
LINE
  8
ITEM_50
 10
105.5719529999999
 20
46.28
 30
0.0
 11
103.5719529999999
 21
46.45497699999999
 31
0.0
  0
LINE
  8
ITEM_50
 10
105.5719529999999
 20
43.88
 30
0.0
 11
103.5719529999999
 21
43.70502299999999
 31
0.0
  0
LINE
  8
ITEM_50
 10
105.5719529999999
 20
45.07999999999999
 30
0.0
 11
105.5719529999999
 21
43.88
 31
0.0
  0
LINE
  8
ITEM_50
 10
103.5719529999999
 20
46.45497699999999
 30
0.0
 11
103.5719529999999
 21
48.785023
 31
0.0
  0
LINE
  8
ITEM_50
 10
103.5719529999999
 20
41.374977
 30
0.0
 11
103.5719529999999
 21
43.70502299999999
 31
0.0
  0
LINE
  8
ITEM_50
 10
105.5719529999999
 20
40.0
 30
0.0
 11
105.5719529999999
 21
38.79999999999999
 31
0.0
  0
LINE
  8
ITEM_50
 10
105.5719529999999
 20
38.79999999999999
 30
0.0
 11
103.5719529999999
 21
38.62502299999999
 31
0.0
  0
LINE
  8
ITEM_50
 10
105.5719529999999
 20
41.2
 30
0.0
 11
103.5719529999999
 21
41.374977
 31
0.0
  0
LINE
  8
ITEM_50
 10
105.5719529999999
 20
40.0
 30
0.0
 11
105.5719529999999
 21
41.2
 31
0.0
  0
ARC
  8
ITEM_50
 10
118.5719529999999
 20
48.5
 30
0.0
 40
1.5
 50
270.0
 51
0.0
  0
LINE
  8
ITEM_50
 10
118.8219529999999
 20
41.5
 30
0.0
 11
112.5719529999999
 21
41.5
 31
0.0
  0
ARC
  8
ITEM_50
 10
112.5719529999999
 20
40.0
 30
0.0
 40
1.5
 50
90.0
 51
180.0
  0
ARC
  8
ITEM_50
 10
112.5719529999999
 20
45.5
 30
0.0
 40
1.5
 50
90.0
 51
270.0
  0
LINE
  8
ITEM_50
 10
112.5719529999999
 20
44.0
 30
0.0
 11
118.8219529999999
 21
44.0
 31
0.0
  0
LINE
  8
ITEM_50
 10
118.5719529999999
 20
47.0
 30
0.0
 11
112.5719529999999
 21
47.0
 31
0.0
  0
LINE
  8
ITEM_50
 10
118.5714608531184
 20
24.0
 30
0.0
 11
116.5719529999999
 21
24.0
 31
0.0
  0
LINE
  8
ITEM_50
 10
115.5719529999999
 20
25.0
 30
0.0
 11
115.5719529999999
 21
26.0
 31
0.0
  0
LINE
  8
ITEM_50
 10
116.5719529999999
 20
27.0
 30
0.0
 11
117.5719529999999
 21
27.0
 31
0.0
  0
LINE
  8
ITEM_50
 10
118.0719529999999
 20
27.5
 30
0.0
 11
118.0719529999999
 21
27.5
 31
0.0
  0
LINE
  8
ITEM_50
 10
114.264341
 20
30.0
 30
0.0
 11
115.5719529999999
 21
30.0
 31
0.0
  0
ARC
  8
ITEM_50
 10
115.5719529999999
 20
27.5
 30
0.0
 40
2.5
 50
0.0
 51
90.0
  0
ARC
  8
ITEM_50
 10
116.5719529999999
 20
25.0
 30
0.0
 40
1.0
 50
180.0
 51
270.0
  0
ARC
  8
ITEM_50
 10
117.5719529999999
 20
27.5
 30
0.0
 40
0.5
 50
270.0
 51
0.0
  0
LINE
  8
ITEM_50
 10
107.871953
 20
27.5
 30
0.0
 11
107.871953
 21
12.5
 31
0.0
  0
LINE
  8
ITEM_50
 10
114.264341
 20
30.0
 30
0.0
 11
110.371953
 21
30.0
 31
0.0
  0
ARC
  8
ITEM_50
 10
116.5719529999999
 20
26.0
 30
0.0
 40
1.0
 50
90.0
 51
180.0
  0
ARC
  8
ITEM_50
 10
116.5719529999999
 20
14.0
 30
0.0
 40
1.0
 50
180.0
 51
270.0
  0
ARC
  8
ITEM_50
 10
117.5719529999999
 20
12.5
 30
0.0
 40
0.5
 50
0.0
 51
90.0
  0
ARC
  8
ITEM_50
 10
116.5719529999999
 20
15.0
 30
0.0
 40
1.0
 50
90.0
 51
180.0
  0
ARC
  8
ITEM_50
 10
115.5719529999999
 20
12.5
 30
0.0
 40
2.5
 50
270.0
 51
0.0
  0
LINE
  8
ITEM_50
 10
114.264341
 20
10.0
 30
0.0
 11
115.5719529999999
 21
10.0
 31
0.0
  0
LINE
  8
ITEM_50
 10
118.0719529999999
 20
12.5
 30
0.0
 11
118.0719529999999
 21
12.5
 31
0.0
  0
LINE
  8
ITEM_50
 10
116.5719529999999
 20
13.0
 30
0.0
 11
117.5719529999999
 21
13.0
 31
0.0
  0
LINE
  8
ITEM_50
 10
115.5719529999999
 20
15.0
 30
0.0
 11
115.5719529999999
 21
14.0
 31
0.0
  0
LINE
  8
ITEM_50
 10
118.5716692038986
 20
16.0
 30
0.0
 11
116.5719529999999
 21
16.0
 31
0.0
  0
ARC
  8
ITEM_50
 10
110.371953
 20
27.5
 30
0.0
 40
2.5
 50
90.0
 51
180.0
  0
ARC
  8
ITEM_50
 10
110.371953
 20
12.5
 30
0.0
 40
2.5
 50
180.0
 51
270.0
  0
LINE
  8
ITEM_50
 10
114.264341
 20
10.0
 30
0.0
 11
110.371953
 21
10.0
 31
0.0
  0
LINE
  8
ITEM_50
 10
114.264341
 20
70.0
 30
0.0
 11
110.371953
 21
70.0
 31
0.0
  0
ARC
  8
ITEM_50
 10
110.371953
 20
67.5
 30
0.0
 40
2.5
 50
90.0
 51
180.0
  0
ARC
  8
ITEM_50
 10
110.371953
 20
52.5
 30
0.0
 40
2.5
 50
180.0
 51
270.0
  0
LINE
  8
ITEM_50
 10
118.5707032139178
 20
64.0
 30
0.0
 11
116.5719529999999
 21
64.0
 31
0.0
  0
LINE
  8
ITEM_50
 10
115.5719529999999
 20
65.0
 30
0.0
 11
115.5719529999999
 21
66.0
 31
0.0
  0
LINE
  8
ITEM_50
 10
116.5719529999999
 20
67.0
 30
0.0
 11
117.5719529999999
 21
67.0
 31
0.0
  0
LINE
  8
ITEM_50
 10
118.0719529999999
 20
67.5
 30
0.0
 11
118.0719529999999
 21
67.5
 31
0.0
  0
LINE
  8
ITEM_50
 10
114.264341
 20
70.0
 30
0.0
 11
115.5719529999999
 21
70.0
 31
0.0
  0
ARC
  8
ITEM_50
 10
115.5719529999999
 20
67.5
 30
0.0
 40
2.5
 50
0.0
 51
90.0
  0
ARC
  8
ITEM_50
 10
116.5719529999999
 20
65.0
 30
0.0
 40
1.0
 50
180.0
 51
270.0
  0
ARC
  8
ITEM_50
 10
117.5719529999999
 20
67.5
 30
0.0
 40
0.5
 50
270.0
 51
0.0
  0
ARC
  8
ITEM_50
 10
116.5719529999999
 20
66.0
 30
0.0
 40
1.0
 50
90.0
 51
180.0
  0
ARC
  8
ITEM_50
 10
116.5719529999999
 20
54.0
 30
0.0
 40
1.0
 50
180.0
 51
270.0
  0
LINE
  8
ITEM_50
 10
114.264341
 20
50.0
 30
0.0
 11
110.371953
 21
50.0
 31
0.0
  0
LINE
  8
ITEM_50
 10
107.871953
 20
52.5
 30
0.0
 11
107.871953
 21
67.5
 31
0.0
  0
ARC
  8
ITEM_50
 10
117.5719529999999
 20
52.5
 30
0.0
 40
0.5
 50
0.0
 51
90.0
  0
ARC
  8
ITEM_50
 10
116.5719529999999
 20
55.0
 30
0.0
 40
1.0
 50
90.0
 51
180.0
  0
ARC
  8
ITEM_50
 10
115.5719529999999
 20
52.5
 30
0.0
 40
2.5
 50
270.0
 51
0.0
  0
LINE
  8
ITEM_50
 10
114.264341
 20
50.0
 30
0.0
 11
115.5719529999999
 21
50.0
 31
0.0
  0
LINE
  8
ITEM_50
 10
118.0719529999999
 20
52.5
 30
0.0
 11
118.0719529999999
 21
52.5
 31
0.0
  0
LINE
  8
ITEM_50
 10
116.5719529999999
 20
53.0
 30
0.0
 11
117.5719529999999
 21
53.0
 31
0.0
  0
LINE
  8
ITEM_50
 10
115.5719529999999
 20
55.0
 30
0.0
 11
115.5719529999999
 21
54.0
 31
0.0
  0
LINE
  8
ITEM_50
 10
118.5709115646979
 20
56.0
 30
0.0
 11
116.5719529999999
 21
56.0
 31
0.0
  0
ARC
  8
ITEM_50
 10
100.0719529999999
 20
75.5
 30
0.0
 40
1.6
 50
321.3751669999999
 51
38.624833
  0
LINE
  8
ITEM_50
 10
98.82195299999999
 20
79.0
 30
0.0
 11
98.82195299999999
 21
76.498749
 31
0.0
  0
LINE
  8
ITEM_50
 10
98.82195299999999
 20
74.50125099999999
 30
0.0
 11
98.82195299999999
 21
74.5
 31
0.0
  0
LINE
  8
ITEM_50
 10
99.82195299999999
 20
73.5
 30
0.0
 11
100.3219529999999
 21
73.5
 31
0.0
  0
LINE
  8
ITEM_50
 10
101.3219529999999
 20
74.5
 30
0.0
 11
101.3219529999999
 21
74.50125099999999
 31
0.0
  0
LINE
  8
ITEM_50
 10
101.3219529999999
 20
76.498749
 30
0.0
 11
101.3219529999999
 21
79.0
 31
0.0
  0
ARC
  8
ITEM_50
 10
97.82195299999999
 20
79.0
 30
0.0
 40
1.0
 50
0.0
 51
90.0
  0
ARC
  8
ITEM_50
 10
99.82195299999999
 20
74.5
 30
0.0
 40
1.0
 50
180.0
 51
270.0
  0
ARC
  8
ITEM_50
 10
100.3219529999999
 20
74.5
 30
0.0
 40
1.0
 50
270.0
 51
0.0
  0
ARC
  8
ITEM_50
 10
102.3219529999999
 20
79.0
 30
0.0
 40
1.0
 50
90.0
 51
180.0
  0
ARC
  8
ITEM_50
 10
100.0719529999999
 20
75.5
 30
0.0
 40
1.6
 50
141.375167
 51
218.6248329999999
  0
ARC
  8
ITEM_50
 10
22.321953
 20
79.0
 30
0.0
 40
1.0
 50
90.0
 51
90.0
  0
ARC
  8
ITEM_50
 10
20.071953
 20
75.5
 30
0.0
 40
1.6
 50
141.375167
 51
218.6248329999999
  0
ARC
  8
ITEM_50
 10
20.321953
 20
74.5
 30
0.0
 40
1.0
 50
270.0
 51
0.0
  0
ARC
  8
ITEM_50
 10
19.821953
 20
74.5
 30
0.0
 40
1.0
 50
180.0
 51
270.0
  0
LINE
  8
ITEM_50
 10
21.321953
 20
76.498749
 30
0.0
 11
21.32195299999999
 21
78.99999999999899
 31
0.0
  0
LINE
  8
ITEM_50
 10
21.321953
 20
74.5
 30
0.0
 11
21.321953
 21
74.50125099999999
 31
0.0
  0
LINE
  8
ITEM_50
 10
19.821953
 20
73.5
 30
0.0
 11
20.321953
 21
73.5
 31
0.0
  0
LINE
  8
ITEM_50
 10
18.821953
 20
74.50125099999999
 30
0.0
 11
18.821953
 21
74.5
 31
0.0
  0
LINE
  8
ITEM_50
 10
18.821953
 20
78.99999999999899
 30
0.0
 11
18.821953
 21
76.498749
 31
0.0
  0
ARC
  8
ITEM_50
 10
20.071953
 20
75.5
 30
0.0
 40
1.6
 50
321.3751669999999
 51
38.624833
  0
LINE
  8
ITEM_50
 10
57.58780399999999
 20
80.0
 30
0.0
 11
57.821953
 21
80.0
 31
0.0
  0
LINE
  8
ITEM_50
 10
77.587804
 20
80.0
 30
0.0
 11
77.82195299999999
 21
80.0
 31
0.0
  0
LINE
  8
ITEM_50
 10
22.321953
 20
80.0
 30
0.0
 11
37.821953
 21
80.0
 31
0.0
  0
LINE
  8
ITEM_50
 10
82.32195299999999
 20
80.0
 30
0.0
 11
97.82195299999999
 21
80.0
 31
0.0
  0
LINE
  8
ITEM_50
 10
37.571953
 20
71.5
 30
0.0
 11
82.587804
 21
71.5
 31
0.0
  0
LINE
  8
ITEM_50
 10
4.071953
 20
79.99999999999899
 30
0.0
 11
6.771952999999999
 21
79.99999999999899
 31
0.0
  0
ARC
  8
ITEM_50
 10
4.071952999999999
 20
75.99999999999899
 30
0.0
 40
4.0
 50
89.99999999999998
 51
180.0
  0
LINE
  8
ITEM_50
 10
13.371953
 20
79.99999999999899
 30
0.0
 11
17.821953
 21
79.99999999999899
 31
0.0
  0
ARC
  8
ITEM_50
 10
6.771952999999999
 20
79.19999999999899
 30
0.0
 40
0.8
 50
0.0
 51
90.0
  0
ARC
  8
ITEM_50
 10
13.371953
 20
79.19999999999899
 30
0.0
 40
0.8
 50
89.99999999999998
 51
179.9999999999999
  0
LINE
  8
ITEM_50
 10
22.32195299999999
 20
79.99999999999899
 30
0.0
 11
37.82195299999998
 21
79.99999999999897
 31
0.0
  0
ARC
  8
ITEM_50
 10
17.821953
 20
78.99999999999899
 30
0.0
 40
1.0
 50
359.9999999999999
 51
90.0
  0
ARC
  8
ITEM_50
 10
22.32195299999999
 20
78.99999999999899
 30
0.0
 40
1.0
 50
89.99999999999998
 51
180.0
  0
LINE
  8
ITEM_50
 10
53.413074
 20
79.99999999999899
 30
0.0
 11
57.821953
 21
79.99999999999897
 31
0.0
  0
ARC
  8
ITEM_50
 10
46.813074
 20
79.19999999999897
 30
0.0
 40
0.8
 50
0.0
 51
89.99999999999997
  0
ARC
  8
ITEM_50
 10
53.413074
 20
79.19999999999899
 30
0.0
 40
0.8
 50
89.99999999999998
 51
180.0
  0
LINE
  8
ITEM_50
 10
73.41307399999999
 20
79.99999999999897
 30
0.0
 11
77.82195299999999
 21
79.99999999999897
 31
0.0
  0
ARC
  8
ITEM_50
 10
66.813074
 20
79.19999999999897
 30
0.0
 40
0.8
 50
0.0
 51
90.0
  0
ARC
  8
ITEM_50
 10
73.41307399999999
 20
79.19999999999897
 30
0.0
 40
0.8
 50
89.99999999999997
 51
180.0
  0
ARC
  8
ITEM_50
 10
116.0712292309102
 20
75.99999999999897
 30
0.0
 40
4.0
 50
358.9102665653198
 51
90.0
  0
LINE
  8
ITEM_50
 10
113.371953
 20
79.99999999999899
 30
0.0
 11
116.0712292309102
 21
79.99999999999897
 31
0.0
  0
ARC
  8
ITEM_50
 10
106.7719529999999
 20
79.19999999999899
 30
0.0
 40
0.8
 50
359.9999999999994
 51
90.0
  0
ARC
  8
ITEM_50
 10
113.371953
 20
79.19999999999899
 30
0.0
 40
0.8
 50
89.99999999999977
 51
179.9999999999994
  0
LINE
  8
ITEM_50
 10
37.50556299999993
 20
80.0
 30
0.0
 11
37.82195299999998
 21
80.0
 31
0.0
  0
ARC
  8
ITEM_50
 10
40.07195299999998
 20
75.04999999999999
 30
0.0
 40
1.25
 50
180.0
 51
0.0
  0
LINE
  8
ITEM_50
 10
41.32195299999998
 20
79.0
 30
0.0
 11
41.32195299999998
 21
75.04999999999999
 31
0.0
  0
ARC
  8
ITEM_50
 10
42.32195299999998
 20
79.0
 30
0.0
 40
1.0
 50
90.0
 51
180.0
  0
ARC
  8
ITEM_50
 10
37.82195299999998
 20
79.0
 30
0.0
 40
1.0
 50
0.0
 51
90.0
  0
LINE
  8
ITEM_50
 10
38.82195299999998
 20
79.0
 30
0.0
 11
38.82195299999998
 21
75.04999999999999
 31
0.0
  0
ARC
  8
ITEM_50
 10
57.821953
 20
79.0
 30
0.0
 40
1.0
 50
0.0
 51
90.0
  0
LINE
  8
ITEM_50
 10
58.821953
 20
79.0
 30
0.0
 11
58.821953
 21
75.04999999999999
 31
0.0
  0
ARC
  8
ITEM_50
 10
60.071953
 20
75.04999999999999
 30
0.0
 40
1.25
 50
180.0
 51
0.0
  0
LINE
  8
ITEM_50
 10
61.321953
 20
79.0
 30
0.0
 11
61.321953
 21
75.04999999999999
 31
0.0
  0
ARC
  8
ITEM_50
 10
62.321953
 20
79.0
 30
0.0
 40
1.0
 50
90.0
 51
180.0
  0
ARC
  8
ITEM_50
 10
77.82195299999999
 20
79.0
 30
0.0
 40
1.0
 50
0.0
 51
90.0
  0
LINE
  8
ITEM_50
 10
78.82195299999999
 20
79.0
 30
0.0
 11
78.82195299999999
 21
75.04999999999999
 31
0.0
  0
ARC
  8
ITEM_50
 10
80.07195299999999
 20
75.04999999999999
 30
0.0
 40
1.25
 50
180.0
 51
0.0
  0
LINE
  8
ITEM_50
 10
81.32195299999999
 20
79.0
 30
0.0
 11
81.32195299999999
 21
75.04999999999999
 31
0.0
  0
ARC
  8
ITEM_50
 10
82.32195299999999
 20
79.0
 30
0.0
 40
1.0
 50
90.0
 51
180.0
  0
LINE
  8
ITEM_50
 10
82.32195299999999
 20
79.99999999999899
 30
0.0
 11
97.82195299999999
 21
79.99999999999899
 31
0.0
  0
LINE
  8
ITEM_50
 10
62.321953
 20
79.99999999999897
 30
0.0
 11
66.813074
 21
79.99999999999897
 31
0.0
  0
LINE
  8
ITEM_50
 10
42.32195299999998
 20
79.99999999999897
 30
0.0
 11
46.813074
 21
79.99999999999897
 31
0.0
  0
LINE
  8
ITEM_50
 10
102.3219529999999
 20
79.99999999999899
 30
0.0
 11
106.7719529999999
 21
79.99999999999899
 31
0.0
  0
LINE
  8
ITEM_50
 10
10.771953
 20
71.5
 30
0.0
 11
26.79722299999999
 21
71.5
 31
0.0
  0
LINE
  8
ITEM_50
 10
93.413074
 20
71.49999999999998
 30
0.0
 11
99.57195299999999
 21
71.49999999999998
 31
0.0
  0
LINE
  8
ITEM_50
 10
33.39722299999999
 20
71.5
 30
0.0
 11
86.81307399999998
 21
71.49999999999998
 31
0.0
  0
ARC
  8
ITEM_50
 10
26.79722299999999
 20
72.29999999999999
 30
0.0
 40
0.8
 50
270.0
 51
0.0
  0
ARC
  8
ITEM_50
 10
33.39722299999999
 20
72.29999999999999
 30
0.0
 40
0.8
 50
180.0
 51
270.0
  0
ARC
  8
ITEM_50
 10
86.81307399999998
 20
72.29999999999998
 30
0.0
 40
0.8
 50
270.0
 51
0.0
  0
ARC
  8
ITEM_50
 10
93.413074
 20
72.29999999999998
 30
0.0
 40
0.8
 50
180.0000000000005
 51
270.0
  0
LINE
  8
ITEM_50
 10
102.3219529999999
 20
0.0000000000030411
 30
0.0
 11
106.7719529999999
 21
0.0000000000030411
 31
0.0
  0
LINE
  8
ITEM_50
 10
42.32195299999998
 20
0.0000000000030553
 30
0.0
 11
46.813074
 21
0.0000000000030553
 31
0.0
  0
LINE
  8
ITEM_50
 10
62.321953
 20
0.0000000000030553
 30
0.0
 11
66.813074
 21
0.0000000000030553
 31
0.0
  0
LINE
  8
ITEM_50
 10
82.32195299999999
 20
0.0000000000030411
 30
0.0
 11
97.82195299999999
 21
0.0000000000030411
 31
0.0
  0
ARC
  8
ITEM_50
 10
82.32195299999999
 20
1.000000000002032
 30
0.0
 40
1.0
 50
180.0
 51
270.0
  0
LINE
  8
ITEM_50
 10
81.32195299999999
 20
1.000000000002032
 30
0.0
 11
81.32195299999999
 21
4.950000000002035
 31
0.0
  0
ARC
  8
ITEM_50
 10
80.07195299999999
 20
4.950000000002035
 30
0.0
 40
1.25
 50
0.0
 51
180.0
  0
LINE
  8
ITEM_50
 10
78.82195299999999
 20
1.000000000002032
 30
0.0
 11
78.82195299999999
 21
4.950000000002035
 31
0.0
  0
ARC
  8
ITEM_50
 10
77.82195299999999
 20
1.000000000002032
 30
0.0
 40
1.0
 50
270.0
 51
0.0
  0
ARC
  8
ITEM_50
 10
62.321953
 20
1.000000000002032
 30
0.0
 40
1.0
 50
180.0
 51
270.0
  0
LINE
  8
ITEM_50
 10
61.321953
 20
1.000000000002032
 30
0.0
 11
61.321953
 21
4.950000000002035
 31
0.0
  0
ARC
  8
ITEM_50
 10
60.071953
 20
4.950000000002035
 30
0.0
 40
1.25
 50
0.0
 51
180.0
  0
LINE
  8
ITEM_50
 10
58.821953
 20
1.000000000002032
 30
0.0
 11
58.821953
 21
4.950000000002035
 31
0.0
  0
ARC
  8
ITEM_50
 10
57.821953
 20
1.000000000002032
 30
0.0
 40
1.0
 50
270.0
 51
0.0
  0
LINE
  8
ITEM_50
 10
38.82195299999998
 20
1.000000000002032
 30
0.0
 11
38.82195299999998
 21
4.950000000002035
 31
0.0
  0
ARC
  8
ITEM_50
 10
37.82195299999998
 20
1.000000000002032
 30
0.0
 40
1.0
 50
270.0
 51
0.0
  0
ARC
  8
ITEM_50
 10
42.32195299999998
 20
1.000000000002032
 30
0.0
 40
1.0
 50
180.0
 51
270.0
  0
LINE
  8
ITEM_50
 10
41.32195299999998
 20
1.000000000002032
 30
0.0
 11
41.32195299999998
 21
4.950000000002035
 31
0.0
  0
ARC
  8
ITEM_50
 10
40.07195299999998
 20
4.950000000002035
 30
0.0
 40
1.25
 50
0.0
 51
180.0
  0
LINE
  8
ITEM_50
 10
37.50556299999993
 20
0.0000000000020322
 30
0.0
 11
37.82195299999998
 21
0.0000000000020322
 31
0.0
  0
ARC
  8
ITEM_50
 10
113.371953
 20
0.8000000000030383
 30
0.0
 40
0.8
 50
180.0000000000005
 51
270.0000000000002
  0
ARC
  8
ITEM_50
 10
106.7719529999999
 20
0.8000000000030383
 30
0.0
 40
0.8
 50
270.0
 51
0.0000000000005089
  0
LINE
  8
ITEM_50
 10
113.371953
 20
0.0000000000030411
 30
0.0
 11
116.0712292309102
 21
0.0000000000030553
 31
0.0
  0
ARC
  8
ITEM_50
 10
116.0712292309102
 20
4.000000000003055
 30
0.0
 40
4.0
 50
270.0
 51
1.08973343468017
  0
ARC
  8
ITEM_50
 10
73.41307399999999
 20
0.8000000000030525
 30
0.0
 40
0.8
 50
180.0
 51
270.0
  0
ARC
  8
ITEM_50
 10
66.813074
 20
0.8000000000030525
 30
0.0
 40
0.8
 50
270.0
 51
0.0
  0
LINE
  8
ITEM_50
 10
73.41307399999999
 20
0.0000000000030553
 30
0.0
 11
77.82195299999999
 21
0.0000000000030553
 31
0.0
  0
ARC
  8
ITEM_50
 10
53.413074
 20
0.8000000000030383
 30
0.0
 40
0.8
 50
180.0
 51
270.0
  0
ARC
  8
ITEM_50
 10
46.813074
 20
0.8000000000030525
 30
0.0
 40
0.8
 50
270.0
 51
0.0
  0
LINE
  8
ITEM_50
 10
53.413074
 20
0.0000000000030411
 30
0.0
 11
57.821953
 21
0.0000000000030553
 31
0.0
  0
ARC
  8
ITEM_50
 10
22.32195299999999
 20
1.000000000003041
 30
0.0
 40
1.0
 50
180.0
 51
270.0
  0
ARC
  8
ITEM_50
 10
17.821953
 20
1.000000000003041
 30
0.0
 40
1.0
 50
270.0
 51
0.0000000000000509
  0
LINE
  8
ITEM_50
 10
22.32195299999999
 20
0.0000000000030411
 30
0.0
 11
37.82195299999998
 21
0.0000000000030553
 31
0.0
  0
ARC
  8
ITEM_50
 10
13.371953
 20
0.8000000000030383
 30
0.0
 40
0.8
 50
180.0
 51
270.0
  0
ARC
  8
ITEM_50
 10
6.771952999999999
 20
0.8000000000030383
 30
0.0
 40
0.8
 50
270.0
 51
0.0
  0
LINE
  8
ITEM_50
 10
13.371953
 20
0.0000000000030411
 30
0.0
 11
17.821953
 21
0.0000000000030411
 31
0.0
  0
ARC
  8
ITEM_50
 10
4.071952999999999
 20
4.000000000003041
 30
0.0
 40
4.0
 50
180.0
 51
270.0
  0
LINE
  8
ITEM_50
 10
4.071953
 20
0.0000000000030411
 30
0.0
 11
6.771952999999999
 21
0.0000000000030411
 31
0.0
  0
LINE
  8
ITEM_50
 10
82.32195299999999
 20
0.0000000000020322
 30
0.0
 11
97.82195299999999
 21
0.0000000000020322
 31
0.0
  0
LINE
  8
ITEM_50
 10
22.321953
 20
0.0000000000020322
 30
0.0
 11
37.821953
 21
0.0000000000020322
 31
0.0
  0
LINE
  8
ITEM_50
 10
77.587804
 20
0.0000000000020322
 30
0.0
 11
77.82195299999999
 21
0.0000000000020322
 31
0.0
  0
LINE
  8
ITEM_50
 10
57.58780399999999
 20
0.0000000000020322
 30
0.0
 11
57.821953
 21
0.0000000000020322
 31
0.0
  0
ARC
  8
ITEM_50
 10
20.071953
 20
4.500000000002032
 30
0.0
 40
1.6
 50
321.375167
 51
38.62483300000003
  0
LINE
  8
ITEM_50
 10
18.821953
 20
1.000000000003041
 30
0.0
 11
18.821953
 21
3.501251000002028
 31
0.0
  0
LINE
  8
ITEM_50
 10
18.821953
 20
5.498749000002035
 30
0.0
 11
18.821953
 21
5.500000000002032
 31
0.0
  0
LINE
  8
ITEM_50
 10
19.821953
 20
6.500000000002032
 30
0.0
 11
20.321953
 21
6.500000000002032
 31
0.0
  0
LINE
  8
ITEM_50
 10
21.321953
 20
5.500000000002032
 30
0.0
 11
21.321953
 21
5.498749000002035
 31
0.0
  0
LINE
  8
ITEM_50
 10
21.321953
 20
3.501251000002028
 30
0.0
 11
21.32195299999999
 21
1.000000000003041
 31
0.0
  0
ARC
  8
ITEM_50
 10
19.821953
 20
5.500000000002032
 30
0.0
 40
1.0
 50
90.0
 51
180.0
  0
ARC
  8
ITEM_50
 10
20.321953
 20
5.500000000002032
 30
0.0
 40
1.0
 50
0.0
 51
90.0
  0
ARC
  8
ITEM_50
 10
20.071953
 20
4.500000000002032
 30
0.0
 40
1.6
 50
141.375167
 51
218.6248329999999
  0
ARC
  8
ITEM_50
 10
22.321953
 20
1.000000000002032
 30
0.0
 40
1.0
 50
270.0
 51
270.0
  0
ARC
  8
ITEM_50
 10
100.0719529999999
 20
4.500000000002032
 30
0.0
 40
1.6
 50
141.375167
 51
218.6248329999999
  0
ARC
  8
ITEM_50
 10
102.3219529999999
 20
1.000000000002032
 30
0.0
 40
1.0
 50
180.0
 51
270.0
  0
ARC
  8
ITEM_50
 10
100.3219529999999
 20
5.500000000002032
 30
0.0
 40
1.0
 50
0.0
 51
90.0
  0
ARC
  8
ITEM_50
 10
99.82195299999999
 20
5.500000000002032
 30
0.0
 40
1.0
 50
90.0
 51
180.0
  0
ARC
  8
ITEM_50
 10
97.82195299999999
 20
1.000000000002032
 30
0.0
 40
1.0
 50
270.0
 51
0.0
  0
LINE
  8
ITEM_50
 10
101.3219529999999
 20
3.501251000002028
 30
0.0
 11
101.3219529999999
 21
1.000000000002032
 31
0.0
  0
LINE
  8
ITEM_50
 10
101.3219529999999
 20
5.500000000002032
 30
0.0
 11
101.3219529999999
 21
5.498749000002035
 31
0.0
  0
LINE
  8
ITEM_50
 10
99.82195299999999
 20
6.500000000002032
 30
0.0
 11
100.3219529999999
 21
6.500000000002032
 31
0.0
  0
LINE
  8
ITEM_50
 10
98.82195299999999
 20
5.498749000002035
 30
0.0
 11
98.82195299999999
 21
5.500000000002032
 31
0.0
  0
LINE
  8
ITEM_50
 10
98.82195299999999
 20
1.000000000002032
 30
0.0
 11
98.82195299999999
 21
3.501251000002028
 31
0.0
  0
ARC
  8
ITEM_50
 10
100.0719529999999
 20
4.500000000002032
 30
0.0
 40
1.6
 50
321.375167
 51
38.62483300000003
  0
LINE
  8
ITEM_50
 10
7.77611
 20
6.200000000002035
 30
0.0
 11
10.071953
 21
6.200000000002035
 31
0.0
  0
ARC
  8
ITEM_50
 10
5.154359
 20
2.732412000002028
 30
0.0
 40
0.832412
 50
135.000201
 51
180.0
  0
ARC
  8
ITEM_50
 10
5.154359
 20
2.732412000002028
 30
0.0
 40
0.832412
 50
180.0
 51
270.000198
  0
LINE
  8
ITEM_50
 10
4.565753
 20
3.321013000002025
 30
0.0
 11
7.210424999999999
 21
5.965685000002025
 31
0.0
  0
ARC
  8
ITEM_50
 10
7.271952999999999
 20
1.600000000002026
 30
0.0
 40
0.3
 50
0.0
 51
90.0
  0
LINE
  8
ITEM_50
 10
7.571952999999999
 20
1.600000000002026
 30
0.0
 11
7.571952999999999
 21
0.8000000000030383
 31
0.0
  0
LINE
  8
ITEM_50
 10
5.154361999999999
 20
1.900000000002037
 30
0.0
 11
7.271952999999999
 21
1.900000000002037
 31
0.0
  0
ARC
  8
ITEM_50
 10
7.77611
 20
5.400000000002037
 30
0.0
 40
0.8
 50
90.0
 51
135.0
  0
ARC
  8
ITEM_50
 10
12.367796
 20
5.400000000002037
 30
0.0
 40
0.8
 50
45.0
 51
90.0
  0
LINE
  8
ITEM_50
 10
14.989544
 20
1.900000000002037
 30
0.0
 11
12.87195299999999
 21
1.900000000002037
 31
0.0
  0
ARC
  8
ITEM_50
 10
12.87195299999999
 20
1.600000000002026
 30
0.0
 40
0.3
 50
90.0
 51
180.0
  0
LINE
  8
ITEM_50
 10
15.578153
 20
3.321013000002025
 30
0.0
 11
12.933481
 21
5.965685000002025
 31
0.0
  0
ARC
  8
ITEM_50
 10
14.989547
 20
2.732412000002028
 30
0.0
 40
0.832412
 50
269.9998019999999
 51
0.0
  0
ARC
  8
ITEM_50
 10
14.989547
 20
2.732412000002028
 30
0.0
 40
0.832412
 50
0.0
 51
44.99979899999998
  0
LINE
  8
ITEM_50
 10
12.367796
 20
6.200000000002035
 30
0.0
 11
10.071953
 21
6.200000000002035
 31
0.0
  0
LINE
  8
ITEM_50
 10
12.571953
 20
1.600000000002026
 30
0.0
 11
12.571953
 21
0.8000000000030383
 31
0.0
  0
LINE
  8
ITEM_50
 10
47.81723099999999
 20
6.200000000002035
 30
0.0
 11
50.11307399999999
 21
6.200000000002035
 31
0.0
  0
ARC
  8
ITEM_50
 10
45.19548
 20
2.732412000002028
 30
0.0
 40
0.832412
 50
135.000201
 51
180.0
  0
ARC
  8
ITEM_50
 10
45.19548
 20
2.732412000002028
 30
0.0
 40
0.832412
 50
180.0
 51
270.000198
  0
LINE
  8
ITEM_50
 10
44.60687399999999
 20
3.321013000002025
 30
0.0
 11
47.25154599999999
 21
5.965685000002025
 31
0.0
  0
ARC
  8
ITEM_50
 10
47.313074
 20
1.600000000002026
 30
0.0
 40
0.3
 50
0.0
 51
90.0
  0
LINE
  8
ITEM_50
 10
47.61307399999999
 20
1.600000000002026
 30
0.0
 11
47.613074
 21
0.8000000000030525
 31
0.0
  0
LINE
  8
ITEM_50
 10
45.19548199999999
 20
1.900000000002037
 30
0.0
 11
47.313074
 21
1.900000000002037
 31
0.0
  0
ARC
  8
ITEM_50
 10
47.81723099999999
 20
5.400000000002037
 30
0.0
 40
0.8
 50
90.0
 51
135.0
  0
ARC
  8
ITEM_50
 10
52.40891599999999
 20
5.400000000002037
 30
0.0
 40
0.8
 50
45.0
 51
90.0
  0
LINE
  8
ITEM_50
 10
55.03066499999999
 20
1.900000000002037
 30
0.0
 11
52.913074
 21
1.900000000002037
 31
0.0
  0
ARC
  8
ITEM_50
 10
52.913074
 20
1.600000000002026
 30
0.0
 40
0.3
 50
90.0
 51
180.0
  0
LINE
  8
ITEM_50
 10
55.61927399999999
 20
3.321013000002025
 30
0.0
 11
52.97460199999999
 21
5.965685000002025
 31
0.0
  0
ARC
  8
ITEM_50
 10
55.03066799999999
 20
2.732412000002028
 30
0.0
 40
0.832412
 50
269.9998019999999
 51
0.0
  0
ARC
  8
ITEM_50
 10
55.03066799999999
 20
2.732412000002028
 30
0.0
 40
0.832412
 50
0.0
 51
44.99979899999998
  0
LINE
  8
ITEM_50
 10
52.40891599999999
 20
6.200000000002035
 30
0.0
 11
50.11307399999999
 21
6.200000000002035
 31
0.0
  0
LINE
  8
ITEM_50
 10
52.61307399999999
 20
1.600000000002026
 30
0.0
 11
52.613074
 21
0.8000000000030383
 31
0.0
  0
LINE
  8
ITEM_50
 10
67.817231
 20
6.200000000002035
 30
0.0
 11
70.11307399999999
 21
6.200000000002035
 31
0.0
  0
ARC
  8
ITEM_50
 10
65.19548
 20
2.732412000002028
 30
0.0
 40
0.832412
 50
135.000201
 51
180.0
  0
ARC
  8
ITEM_50
 10
65.19548
 20
2.732412000002028
 30
0.0
 40
0.832412
 50
180.0
 51
270.000198
  0
LINE
  8
ITEM_50
 10
64.606874
 20
3.321013000002025
 30
0.0
 11
67.251546
 21
5.965685000002025
 31
0.0
  0
ARC
  8
ITEM_50
 10
67.313074
 20
1.600000000002026
 30
0.0
 40
0.3
 50
0.0
 51
90.0
  0
LINE
  8
ITEM_50
 10
67.61307399999999
 20
1.600000000002026
 30
0.0
 11
67.61307399999999
 21
0.8000000000030525
 31
0.0
  0
LINE
  8
ITEM_50
 10
65.19548199999999
 20
1.900000000002037
 30
0.0
 11
67.313074
 21
1.900000000002037
 31
0.0
  0
ARC
  8
ITEM_50
 10
67.817231
 20
5.400000000002037
 30
0.0
 40
0.8
 50
90.0
 51
135.0
  0
ARC
  8
ITEM_50
 10
72.408916
 20
5.400000000002037
 30
0.0
 40
0.8
 50
45.0
 51
90.0
  0
LINE
  8
ITEM_50
 10
75.03066499999999
 20
1.900000000002037
 30
0.0
 11
72.91307399999999
 21
1.900000000002037
 31
0.0
  0
ARC
  8
ITEM_50
 10
72.91307399999999
 20
1.600000000002026
 30
0.0
 40
0.3
 50
90.0
 51
180.0
  0
LINE
  8
ITEM_50
 10
75.619274
 20
3.321013000002025
 30
0.0
 11
72.974602
 21
5.965685000002025
 31
0.0
  0
ARC
  8
ITEM_50
 10
75.030668
 20
2.732412000002028
 30
0.0
 40
0.832412
 50
269.9998019999999
 51
0.0
  0
ARC
  8
ITEM_50
 10
75.030668
 20
2.732412000002028
 30
0.0
 40
0.832412
 50
0.0
 51
44.99979899999998
  0
LINE
  8
ITEM_50
 10
72.408916
 20
6.200000000002035
 30
0.0
 11
70.11307399999999
 21
6.200000000002035
 31
0.0
  0
LINE
  8
ITEM_50
 10
72.61307399999999
 20
1.600000000002026
 30
0.0
 11
72.61307399999999
 21
0.8000000000030525
 31
0.0
  0
LINE
  8
ITEM_50
 10
107.77611
 20
6.200000000002035
 30
0.0
 11
110.0719529999999
 21
6.200000000002035
 31
0.0
  0
ARC
  8
ITEM_50
 10
105.1543589999999
 20
2.732412000002028
 30
0.0
 40
0.832412
 50
135.000201
 51
180.0
  0
ARC
  8
ITEM_50
 10
105.1543589999999
 20
2.732412000002028
 30
0.0
 40
0.832412
 50
180.0
 51
270.000198
  0
LINE
  8
ITEM_50
 10
104.565753
 20
3.321013000002025
 30
0.0
 11
107.210425
 21
5.965685000002025
 31
0.0
  0
ARC
  8
ITEM_50
 10
107.2719529999999
 20
1.600000000002026
 30
0.0
 40
0.3
 50
0.0
 51
90.0
  0
LINE
  8
ITEM_50
 10
107.5719529999999
 20
1.600000000002026
 30
0.0
 11
107.5719529999999
 21
0.8000000000030383
 31
0.0
  0
LINE
  8
ITEM_50
 10
105.154362
 20
1.900000000002037
 30
0.0
 11
107.2719529999999
 21
1.900000000002037
 31
0.0
  0
ARC
  8
ITEM_50
 10
107.77611
 20
5.400000000002037
 30
0.0
 40
0.8
 50
90.0
 51
135.0
  0
ARC
  8
ITEM_50
 10
112.3677959999999
 20
5.400000000002037
 30
0.0
 40
0.8
 50
45.0
 51
90.0
  0
LINE
  8
ITEM_50
 10
114.9895439999999
 20
1.900000000002037
 30
0.0
 11
112.871953
 21
1.900000000002037
 31
0.0
  0
ARC
  8
ITEM_50
 10
112.871953
 20
1.600000000002026
 30
0.0
 40
0.3
 50
90.0
 51
180.0
  0
LINE
  8
ITEM_50
 10
115.578153
 20
3.321013000002025
 30
0.0
 11
112.933481
 21
5.965685000002025
 31
0.0
  0
ARC
  8
ITEM_50
 10
114.989547
 20
2.732412000002028
 30
0.0
 40
0.832412
 50
269.9998019999999
 51
0.0
  0
ARC
  8
ITEM_50
 10
114.989547
 20
2.732412000002028
 30
0.0
 40
0.832412
 50
0.0
 51
44.99979899999998
  0
LINE
  8
ITEM_50
 10
112.3677959999999
 20
6.200000000002035
 30
0.0
 11
110.0719529999999
 21
6.200000000002035
 31
0.0
  0
LINE
  8
ITEM_50
 10
112.5719529999999
 20
1.600000000002026
 30
0.0
 11
112.571953
 21
0.8000000000030383
 31
0.0
  0
LINE
  8
ITEM_50
 10
32.39306599999999
 20
2.300000000002029
 30
0.0
 11
30.09722299999999
 21
2.300000000002029
 31
0.0
  0
ARC
  8
ITEM_50
 10
35.014817
 20
5.767588000002035
 30
0.0
 40
0.832412
 50
315.000201
 51
0.0
  0
ARC
  8
ITEM_50
 10
35.014817
 20
5.767588000002035
 30
0.0
 40
0.832412
 50
0.0
 51
90.00019800000002
  0
LINE
  8
ITEM_50
 10
35.60342299999999
 20
5.178987000002038
 30
0.0
 11
32.95875099999999
 21
2.534315000002038
 31
0.0
  0
LINE
  8
ITEM_50
 10
35.014814
 20
6.600000000002026
 30
0.0
 11
32.89722299999999
 21
6.600000000002026
 31
0.0
  0
ARC
  8
ITEM_50
 10
32.39306599999999
 20
3.100000000002026
 30
0.0
 40
0.8
 50
270.0
 51
315.0
  0
ARC
  8
ITEM_50
 10
27.80138
 20
3.100000000002026
 30
0.0
 40
0.8
 50
225.0
 51
270.0
  0
LINE
  8
ITEM_50
 10
25.179632
 20
6.600000000002026
 30
0.0
 11
27.29722299999999
 21
6.600000000002026
 31
0.0
  0
LINE
  8
ITEM_50
 10
24.59102299999999
 20
5.178987000002038
 30
0.0
 11
27.23569499999999
 21
2.534315000002038
 31
0.0
  0
ARC
  8
ITEM_50
 10
25.17962899999999
 20
5.767588000002035
 30
0.0
 40
0.832412
 50
89.99980199999997
 51
180.0
  0
ARC
  8
ITEM_50
 10
25.17962899999999
 20
5.767588000002035
 30
0.0
 40
0.832412
 50
180.0
 51
224.9997989999999
  0
LINE
  8
ITEM_50
 10
27.80138
 20
2.300000000002029
 30
0.0
 11
30.09722299999999
 21
2.300000000002029
 31
0.0
  0
LINE
  8
ITEM_50
 10
92.408916
 20
2.300000000002029
 30
0.0
 11
90.11307399999999
 21
2.300000000002029
 31
0.0
  0
ARC
  8
ITEM_50
 10
95.030668
 20
5.767588000002035
 30
0.0
 40
0.832412
 50
315.000201
 51
0.0
  0
ARC
  8
ITEM_50
 10
95.030668
 20
5.767588000002035
 30
0.0
 40
0.832412
 50
0.0
 51
90.00019800000002
  0
LINE
  8
ITEM_50
 10
95.619274
 20
5.178987000002038
 30
0.0
 11
92.974602
 21
2.534315000002038
 31
0.0
  0
LINE
  8
ITEM_50
 10
95.03066499999999
 20
6.600000000002026
 30
0.0
 11
92.91307399999999
 21
6.600000000002026
 31
0.0
  0
ARC
  8
ITEM_50
 10
92.408916
 20
3.100000000002026
 30
0.0
 40
0.8
 50
270.0
 51
315.0
  0
ARC
  8
ITEM_50
 10
87.817231
 20
3.100000000002026
 30
0.0
 40
0.8
 50
225.0
 51
270.0
  0
LINE
  8
ITEM_50
 10
85.19548199999999
 20
6.600000000002026
 30
0.0
 11
87.313074
 21
6.600000000002026
 31
0.0
  0
LINE
  8
ITEM_50
 10
84.606874
 20
5.178987000002038
 30
0.0
 11
87.251546
 21
2.534315000002038
 31
0.0
  0
ARC
  8
ITEM_50
 10
85.19548
 20
5.767588000002035
 30
0.0
 40
0.832412
 50
89.99980199999997
 51
180.0
  0
ARC
  8
ITEM_50
 10
85.19548
 20
5.767588000002035
 30
0.0
 40
0.832412
 50
180.0
 51
224.9997989999999
  0
LINE
  8
ITEM_50
 10
87.817231
 20
2.300000000002029
 30
0.0
 11
90.11307399999999
 21
2.300000000002029
 31
0.0
  0
ARC
  8
ITEM_50
 10
93.413074
 20
7.700000000002049
 30
0.0
 40
0.8
 50
90.0
 51
179.9999999999994
  0
ARC
  8
ITEM_50
 10
86.81307399999998
 20
7.700000000002049
 30
0.0
 40
0.8
 50
0.0
 51
90.0
  0
ARC
  8
ITEM_50
 10
33.39722299999999
 20
7.700000000002035
 30
0.0
 40
0.8
 50
90.0
 51
180.0
  0
ARC
  8
ITEM_50
 10
26.79722299999999
 20
7.700000000002035
 30
0.0
 40
0.8
 50
0.0
 51
90.0
  0
LINE
  8
ITEM_50
 10
33.39722299999999
 20
8.500000000002032
 30
0.0
 11
86.81307399999998
 21
8.500000000002046
 31
0.0
  0
LINE
  8
ITEM_50
 10
93.413074
 20
8.500000000002046
 30
0.0
 11
99.57195299999999
 21
8.500000000002046
 31
0.0
  0
LINE
  8
ITEM_50
 10
10.771953
 20
8.500000000002032
 30
0.0
 11
26.79722299999999
 21
8.500000000002032
 31
0.0
  0
LINE
  8
ITEM_50
 10
37.571953
 20
8.500000000002032
 30
0.0
 11
82.587804
 21
8.500000000002032
 31
0.0
  0
LINE
  8
ITEM_50
 10
97.587804
 20
8.500000000002032
 30
0.0
 11
99.57195299999999
 21
8.500000000002032
 31
0.0
  0
LINE
  8
ITEM_50
 10
12.756102
 20
8.500000000002032
 30
0.0
 11
10.77195299999999
 21
8.500000000002032
 31
0.0
  0
LINE
  8
ITEM_50
 10
22.571953
 20
8.500000000002032
 30
0.0
 11
12.756102
 21
8.500000000002032
 31
0.0
  0
LINE
  8
ITEM_50
 10
32.59722299999999
 20
6.900000000002037
 30
0.0
 11
32.59722299999999
 21
7.700000000002035
 31
0.0
  0
ARC
  8
ITEM_50
 10
32.89722299999999
 20
6.900000000002037
 30
0.0
 40
0.3
 50
180.0
 51
270.0
  0
LINE
  8
ITEM_50
 10
27.59722299999999
 20
6.900000000002037
 30
0.0
 11
27.59722299999999
 21
7.700000000002035
 31
0.0
  0
ARC
  8
ITEM_50
 10
27.29722299999999
 20
6.900000000002037
 30
0.0
 40
0.3
 50
270.0
 51
0.0
  0
LINE
  8
ITEM_50
 10
92.61307399999999
 20
6.900000000002037
 30
0.0
 11
92.61307400000001
 21
7.700000000002049
 31
0.0
  0
ARC
  8
ITEM_50
 10
92.91307399999999
 20
6.900000000002037
 30
0.0
 40
0.3
 50
180.0
 51
270.0
  0
LINE
  8
ITEM_50
 10
87.61307399999999
 20
6.900000000002037
 30
0.0
 11
87.61307399999998
 21
7.700000000002049
 31
0.0
  0
ARC
  8
ITEM_50
 10
87.313074
 20
6.900000000002037
 30
0.0
 40
0.3
 50
270.0
 51
0.0
  0
ARC
  8
ITEM_50
 10
10.77195299999999
 20
12.50000000000203
 30
0.0
 40
4.0
 50
180.0
 51
270.0
  0
ARC
  8
ITEM_50
 10
99.57195299999999
 20
12.50000000000203
 30
0.0
 40
4.0
 50
270.0
 51
0.0
  0
LINE
  8
ITEM_50
 10
6.771952999999999
 20
12.50000000000203
 30
0.0
 11
6.771952999999999
 21
13.225023
 31
0.0
  0
LINE
  8
ITEM_50
 10
0.0719529999999999
 20
7.5
 30
0.0
 11
0.0719529999999997
 21
4.000000000003041
 31
0.0
  0
LINE
  8
ITEM_50
 10
120.0705057747968
 20
75.92392684101318
 30
0.0
 11
120.0707032136487
 21
65.50002841147002
 31
0.0
  0
LINE
  8
ITEM_50
 10
120.0709115644289
 20
54.50002841147001
 30
0.0
 11
120.0710262094361
 21
48.44727891550929
 31
0.0
  0
LINE
  8
ITEM_50
 10
120.0716692036295
 20
14.50002841147001
 30
0.0
 11
120.0718679999999
 21
4.004458999999999
 31
0.0
  0
ARC
  8
ITEM_50
 10
118.5707032139178
 20
65.5
 30
0.0
 40
1.5
 50
270.0
 51
0.001085238214681
  0
ARC
  8
ITEM_50
 10
118.5709115646979
 20
54.5
 30
0.0
 40
1.5
 50
0.0010852382145792
 51
90.0
  0
ARC
  8
ITEM_50
 10
118.5714608531184
 20
25.5
 30
0.0
 40
1.5
 50
270.0
 51
0.0010852382145665
  0
ARC
  8
ITEM_50
 10
118.5716692038986
 20
14.5
 30
0.0
 40
1.5
 50
0.0010852382145283
 51
90.0
  0
LINE
  8
ITEM_50
 10
120.0711332641716
 20
42.79526220944128
 30
0.0
 11
120.0711349778965
 21
42.704785111988
 31
0.0
  0
LINE
  8
ITEM_50
 10
120.0712374959021
 20
37.29228768494449
 30
0.0
 11
120.0712390969461
 21
37.20775964043923
 31
0.0
  0
LINE
  8
ITEM_50
 10
120.0713463995833
 20
31.54265481550849
 30
0.0
 11
120.0714608528493
 21
25.50002841147001
 31
0.0
  0
LINE
  8
ITEM_50
 10
131.5055070367979
 20
79.99999999999899
 30
0.0
 11
132.5055070367979
 21
79.99999999999899
 31
0.0
  0
LINE
  8
ITEM_50
 10
131.5055070367979
 20
0.0000000000030553
 30
0.0
 11
132.5055070367979
 21
0.0000000000030553
 31
0.0
  0
LINE
  8
ITEM_50
 10
131.5055070367979
 20
79.99999999999897
 30
0.0
 11
131.5055070367979
 21
0.0000000000030553
 31
0.0
  0
LINE
  8
ITEM_50
 10
132.5055070367979
 20
79.99999999999897
 30
0.0
 11
132.5055070367979
 21
0.0000000000030553
 31
0.0
  0
LINE
  8
ITEM_50
 10
131.5055070367979
 20
67.49999999999998
 30
0.0
 11
132.5055070367979
 21
67.49999999999998
 31
0.0
  0
LINE
  8
ITEM_50
 10
131.5055070367979
 20
62.5
 30
0.0
 11
132.5055070367979
 21
62.49999999999999
 31
0.0
  0
LINE
  8
ITEM_50
 10
131.5055070367979
 20
57.5
 30
0.0
 11
132.5055070367979
 21
57.49999999999999
 31
0.0
  0
LINE
  8
ITEM_50
 10
131.5055070367979
 20
52.5
 30
0.0
 11
132.5055070367979
 21
52.49999999999999
 31
0.0
  0
LINE
  8
ITEM_50
 10
131.5055070367978
 20
47.5
 30
0.0
 11
132.5055070367978
 21
47.49999999999999
 31
0.0
  0
LINE
  8
ITEM_50
 10
131.5055070367978
 20
42.5
 30
0.0
 11
132.5055070367978
 21
42.49999999999999
 31
0.0
  0
LINE
  8
ITEM_50
 10
131.5055070367978
 20
37.5
 30
0.0
 11
132.5055070367978
 21
37.49999999999999
 31
0.0
  0
LINE
  8
ITEM_50
 10
131.5055070367978
 20
32.5
 30
0.0
 11
132.5055070367978
 21
32.49999999999999
 31
0.0
  0
LINE
  8
ITEM_50
 10
131.5055070367977
 20
27.5
 30
0.0
 11
132.5055070367977
 21
27.49999999999999
 31
0.0
  0
LINE
  8
ITEM_50
 10
131.5055070367977
 20
22.5
 30
0.0
 11
132.5055070367977
 21
22.49999999999999
 31
0.0
  0
LINE
  8
ITEM_50
 10
131.5055070367977
 20
17.5
 30
0.0
 11
132.5055070367977
 21
17.49999999999999
 31
0.0
  0
LINE
  8
ITEM_50
 10
131.5055070367976
 20
12.5
 30
0.0
 11
132.5055070367976
 21
12.49999999999999
 31
0.0
  0
LINE
  8
ITEM_50
 10
131.5055070367976
 20
7.5
 30
0.0
 11
132.5055070367976
 21
7.499999999999992
 31
0.0
  0
LINE
  8
ITEM_50
 10
131.5055070367979
 20
72.49999999999998
 30
0.0
 11
132.5055070367979
 21
72.49999999999998
 31
0.0
  0
LINE
  8
ITEM_50
 10
0.0719529999999935
 20
-10.64044774550977
 30
0.0
 11
0.0719529999999935
 21
-9.640447745509789
 31
0.0
  0
LINE
  8
ITEM_50
 10
0.0719529999999935
 20
-9.640447745509789
 30
0.0
 11
120.0705057747968
 21
-9.640447745509789
 31
0.0
  0
LINE
  8
ITEM_50
 10
120.0705057747968
 20
-10.64044774550978
 30
0.0
 11
120.0705057747968
 21
-9.640447745509789
 31
0.0
  0
LINE
  8
ITEM_50
 10
0.0719529999999935
 20
-10.64044774550978
 30
0.0
 11
120.0705057747968
 21
-10.64044774550978
 31
0.0
  0
LINE
  8
ITEM_50
 10
7.571952999999998
 20
-9.640447745509787
 30
0.0
 11
7.571952999999999
 21
-10.64044774550978
 31
0.0
  0
LINE
  8
ITEM_50
 10
12.571953
 20
-9.640447745509787
 30
0.0
 11
12.571953
 21
-10.64044774550978
 31
0.0
  0
LINE
  8
ITEM_50
 10
18.821953
 20
-9.640447745509787
 30
0.0
 11
18.821953
 21
-10.64044774550978
 31
0.0
  0
LINE
  8
ITEM_50
 10
21.32195299999999
 20
-9.640447745509789
 30
0.0
 11
21.32195299999999
 21
-10.64044774550978
 31
0.0
  0
LINE
  8
ITEM_50
 10
38.82195299999998
 20
-9.640447745509787
 30
0.0
 11
38.82195299999998
 21
-10.64044774550978
 31
0.0
  0
LINE
  8
ITEM_50
 10
41.32195299999998
 20
-9.640447745509785
 30
0.0
 11
41.32195299999998
 21
-10.64044774550978
 31
0.0
  0
LINE
  8
ITEM_50
 10
47.57195299999998
 20
-9.640447745509785
 30
0.0
 11
47.57195299999998
 21
-10.64044774550978
 31
0.0
  0
LINE
  8
ITEM_50
 10
52.57195299999998
 20
-9.640447745509785
 30
0.0
 11
52.57195299999998
 21
-10.64044774550978
 31
0.0
  0
LINE
  8
ITEM_50
 10
72.571953
 20
-9.640447745509785
 30
0.0
 11
72.571953
 21
-10.64044774550978
 31
0.0
  0
LINE
  8
ITEM_50
 10
67.571953
 20
-9.640447745509785
 30
0.0
 11
67.571953
 21
-10.64044774550978
 31
0.0
  0
LINE
  8
ITEM_50
 10
61.321953
 20
-9.640447745509785
 30
0.0
 11
61.321953
 21
-10.64044774550978
 31
0.0
  0
LINE
  8
ITEM_50
 10
58.821953
 20
-9.640447745509787
 30
0.0
 11
58.821953
 21
-10.64044774550978
 31
0.0
  0
LINE
  8
ITEM_50
 10
78.821953
 20
-9.640447745509789
 30
0.0
 11
78.821953
 21
-10.64044774550978
 31
0.0
  0
LINE
  8
ITEM_50
 10
81.32195299999999
 20
-9.640447745509787
 30
0.0
 11
81.32195299999997
 21
-10.64044774550978
 31
0.0
  0
LINE
  8
ITEM_50
 10
98.821953
 20
-9.640447745509789
 30
0.0
 11
98.82195299999999
 21
-10.64044774550978
 31
0.0
  0
LINE
  8
ITEM_50
 10
98.821953
 20
-10.64044774550978
 30
0.0
 11
98.821953
 21
-9.640447745509789
 31
0.0
  0
LINE
  8
ITEM_50
 10
101.3219529999999
 20
-9.640447745509787
 30
0.0
 11
101.321953
 21
-10.64044774550978
 31
0.0
  0
LINE
  8
ITEM_50
 10
107.571953
 20
-9.640447745509789
 30
0.0
 11
107.571953
 21
-10.64044774550978
 31
0.0
  0
LINE
  8
ITEM_50
 10
112.571953
 20
-9.640447745509789
 30
0.0
 11
112.571953
 21
-10.64044774550978
 31
0.0
  0
LINE
  8
ITEM_50
 10
-11.34575003679796
 20
79.99999999999897
 30
0.0
 11
-11.34575003679796
 21
0.0000000000030553
 31
0.0
  0
LINE
  8
ITEM_50
 10
-12.34575003679796
 20
79.99999999999897
 30
0.0
 11
-12.34575003679796
 21
0.0000000000030553
 31
0.0
  0
LINE
  8
ITEM_50
 10
-11.34575003679796
 20
79.99999999999899
 30
0.0
 11
-12.34575003679796
 21
79.99999999999899
 31
0.0
  0
LINE
  8
ITEM_50
 10
-11.34575003679796
 20
0.0000000000030553
 30
0.0
 11
-12.34575003679796
 21
0.0000000000030553
 31
0.0
  0
LINE
  8
ITEM_50
 10
-11.34575003679796
 20
64.0
 30
0.0
 11
-12.34575003679796
 21
64.0
 31
0.0
  0
LINE
  8
ITEM_50
 10
-11.34575003679796
 20
56.0
 30
0.0
 11
-12.34575003679796
 21
56.0
 31
0.0
  0
LINE
  8
ITEM_50
 10
-11.34575003679796
 20
47.0
 30
0.0
 11
-12.34575003679796
 21
47.0
 31
0.0
  0
LINE
  8
ITEM_50
 10
-11.34575003679796
 20
44.0
 30
0.0
 11
-12.34575003679796
 21
44.0
 31
0.0
  0
LINE
  8
ITEM_50
 10
-11.34575003679796
 20
41.5
 30
0.0
 11
-12.34575003679796
 21
41.5
 31
0.0
  0
LINE
  8
ITEM_50
 10
-11.34575003679796
 20
38.5
 30
0.0
 11
-12.34575003679796
 21
38.5
 31
0.0
  0
LINE
  8
ITEM_50
 10
-11.34575003679796
 20
36.0
 30
0.0
 11
-12.34575003679796
 21
36.0
 31
0.0
  0
LINE
  8
ITEM_50
 10
-11.34575003679796
 20
33.0
 30
0.0
 11
-12.34575003679796
 21
33.0
 31
0.0
  0
LINE
  8
ITEM_50
 10
-11.34575003679796
 20
23.99999999999999
 30
0.0
 11
-12.34575003679796
 21
23.99999999999999
 31
0.0
  0
LINE
  8
ITEM_50
 10
-11.34575003679796
 20
16.0
 30
0.0
 11
-12.34575003679796
 21
16.0
 31
0.0
  0
ENDSEC
  0
EOF
